ISO-10303-21;
HEADER;
FILE_DESCRIPTION (( 'STEP AP214' ),
    '1' );
FILE_NAME ('ÆÁÈ.25.10 Êîëüöî îïîðíîå ÊÎ-×.STEP',
    '2021-09-14T05:36:15',
    ( '' ),
    ( '' ),
    'SwSTEP 2.0',
    'SolidWorks 2018',
    '' );
FILE_SCHEMA (( 'AUTOMOTIVE_DESIGN' ));
ENDSEC;

DATA;
#1 = DIRECTION ( 'NONE',  ( 0.000000000000000000, 0.000000000000000000, -1.000000000000000000 ) ) ;
#2 = EDGE_LOOP ( 'NONE', ( #11, #67, #37, #135 ) ) ;
#3 = PRESENTATION_LAYER_ASSIGNMENT (  '', '', ( #357 ) ) ;
#4 = SURFACE_STYLE_USAGE ( .BOTH. , #229 ) ;
#5 = STYLED_ITEM ( 'NONE', ( #90 ), #8 ) ;
#6 = DIRECTION ( 'NONE',  ( 0.000000000000000000, 1.000000000000000000, 0.000000000000000000 ) ) ;
#7 = VERTEX_POINT ( 'NONE', #122 ) ;
#8 = ADVANCED_BREP_SHAPE_REPRESENTATION ( '¦+L.25.10 ¦þû¹¡þ þÿþ¨ýþõ ¦+-+', ( #30, #175 ), #341 ) ;
#9 = CARTESIAN_POINT ( 'NONE',  ( 0.000000000000000000, 29.99999999999994316, 0.000000000000000000 ) ) ;
#10 = PLANE ( 'NONE',  #38 ) ;
#11 = ORIENTED_EDGE ( 'NONE', *, *, #318, .F. ) ;
#12 = DIRECTION ( 'NONE',  ( 0.000000000000000000, 0.000000000000000000, -1.000000000000000000 ) ) ;
#13 = ORIENTED_EDGE ( 'NONE', *, *, #202, .F. ) ;
#14 = FACE_OUTER_BOUND ( 'NONE', #160, .T. ) ;
#15 = DIRECTION ( 'NONE',  ( 0.000000000000000000, -0.000000000000000000, 1.000000000000000000 ) ) ;
#16 = AXIS2_PLACEMENT_3D ( 'NONE', #363, #201, #153 ) ;
#17 = UNCERTAINTY_MEASURE_WITH_UNIT (LENGTH_MEASURE( 1.000000000000000082E-05 ), #73, 'distance_accuracy_value', 'NONE');
#18 = VERTEX_POINT ( 'NONE', #169 ) ;
#19 = DIRECTION ( 'NONE',  ( 0.000000000000000000, 0.000000000000000000, -1.000000000000000000 ) ) ;
#20 = DIRECTION ( 'NONE',  ( -0.000000000000000000, -1.000000000000000000, -0.000000000000000000 ) ) ;
#21 = VECTOR ( 'NONE', #51, 999.9999999999998863 ) ;
#22 = ORIENTED_EDGE ( 'NONE', *, *, #23, .F. ) ;
#23 = EDGE_CURVE ( 'NONE', #18, #149, #133, .T. ) ;
#24 = CARTESIAN_POINT ( 'NONE',  ( 0.000000000000000000, 29.99999999999994316, 0.000000000000000000 ) ) ;
#25 = AXIS2_PLACEMENT_3D ( 'NONE', #267, #105, #245 ) ;
#26 = CIRCLE ( 'NONE', #168, 510.0000000000000000 ) ;
#27 = COLOUR_RGB ( '',1.000000000000000000, 1.000000000000000000, 1.000000000000000000 ) ;
#28 = AXIS2_PLACEMENT_3D ( 'NONE', #349, #32, #64 ) ;
#29 = EDGE_CURVE ( 'NONE', #338, #95, #359, .T. ) ;
#30 = MANIFOLD_SOLID_BREP ( 'Ïîâåðíóòü1', #351 ) ;
#31 = LINE ( 'NONE', #159, #164 ) ;
#32 = DIRECTION ( 'NONE',  ( -0.000000000000000000, -1.000000000000000000, -0.000000000000000000 ) ) ;
#33 = CARTESIAN_POINT ( 'NONE',  ( 0.000000000000000000, 0.000000000000000000, -510.0000000000000000 ) ) ;
#34 = AXIS2_PLACEMENT_3D ( 'NONE', #316, #6, #145 ) ;
#35 =( NAMED_UNIT ( * ) SI_UNIT ( $, .STERADIAN. ) SOLID_ANGLE_UNIT ( ) );
#36 = DIRECTION ( 'NONE',  ( 0.000000000000000000, 1.000000000000000000, 0.000000000000000000 ) ) ;
#37 = ORIENTED_EDGE ( 'NONE', *, *, #281, .T. ) ;
#38 = AXIS2_PLACEMENT_3D ( 'NONE', #41, #99, #15 ) ;
#39 = CIRCLE ( 'NONE', #293, 460.0000000000000000 ) ;
#40 = ADVANCED_FACE ( 'NONE', ( #56, #65 ), #10, .F. ) ;
#41 = CARTESIAN_POINT ( 'NONE',  ( -455.0000000000000000, 29.99999999999993960, 0.000000000000000000 ) ) ;
#42 = CARTESIAN_POINT ( 'NONE',  ( 5.602759106099139970E-14, 84.99999999999995737, -455.0000000000000000 ) ) ;
#43 = EDGE_CURVE ( 'NONE', #131, #200, #26, .T. ) ;
#44 = AXIS2_PLACEMENT_3D ( 'NONE', #360, #209, #354 ) ;
#45 = VERTEX_POINT ( 'NONE', #325 ) ;
#46 = DIRECTION ( 'NONE',  ( 0.000000000000000000, 0.000000000000000000, -1.000000000000000000 ) ) ;
#47 = CARTESIAN_POINT ( 'NONE',  ( 0.000000000000000000, 129.9999999999999432, 0.000000000000000000 ) ) ;
#48 = EDGE_CURVE ( 'NONE', #137, #226, #308, .T. ) ;
#49 = LINE ( 'NONE', #299, #329 ) ;
#50 = CONICAL_SURFACE ( 'NONE', #124, 292.5000000000000000, 0.08800737352774083699 ) ;
#51 = DIRECTION ( 'NONE',  ( 0.000000000000000000, 0.9938837346736190126, 0.1104315260748466587 ) ) ;
#52 = APPLICATION_PROTOCOL_DEFINITION ( 'draft international standard', 'automotive_design', 1998, #166 ) ;
#53 = DIRECTION ( 'NONE',  ( 1.000000000000000000, 0.000000000000000000, 0.000000000000000000 ) ) ;
#54 = PRESENTATION_LAYER_ASSIGNMENT (  '', '', ( #5 ) ) ;
#55 = EDGE_LOOP ( 'NONE', ( #139, #158, #347, #101 ) ) ;
#56 = FACE_BOUND ( 'NONE', #277, .T. ) ;
#57 = FACE_OUTER_BOUND ( 'NONE', #216, .T. ) ;
#58 = ORIENTED_EDGE ( 'NONE', *, *, #186, .T. ) ;
#59 = VECTOR ( 'NONE', #283, 1000.000000000000000 ) ;
#60 = EDGE_CURVE ( 'NONE', #83, #338, #49, .T. ) ;
#61 = DIRECTION ( 'NONE',  ( 1.352396149325184283E-17, 0.9938837346736190126, -0.1104315260748466587 ) ) ;
#62 = AXIS2_PLACEMENT_3D ( 'NONE', #179, #232, #262 ) ;
#63 = ORIENTED_EDGE ( 'NONE', *, *, #295, .F. ) ;
#64 = DIRECTION ( 'NONE',  ( 0.000000000000000000, 0.000000000000000000, -1.000000000000000000 ) ) ;
#65 = FACE_OUTER_BOUND ( 'NONE', #208, .T. ) ;
#66 = CIRCLE ( 'NONE', #280, 455.0000000000000000 ) ;
#67 = ORIENTED_EDGE ( 'NONE', *, *, #306, .T. ) ;
#68 = CARTESIAN_POINT ( 'NONE',  ( 0.000000000000000000, 29.99999999999994316, 455.0000000000000000 ) ) ;
#69 = CARTESIAN_POINT ( 'NONE',  ( 0.000000000000000000, 84.99999999999995737, 0.000000000000000000 ) ) ;
#70 = CARTESIAN_POINT ( 'NONE',  ( 0.000000000000000000, 129.9999999999999432, 0.000000000000000000 ) ) ;
#71 = APPLICATION_CONTEXT ( 'automotive_design' ) ;
#72 = ORIENTED_EDGE ( 'NONE', *, *, #295, .T. ) ;
#73 =( LENGTH_UNIT ( ) NAMED_UNIT ( * ) SI_UNIT ( .MILLI., .METRE. ) );
#74 = ORIENTED_EDGE ( 'NONE', *, *, #266, .T. ) ;
#75 = PRESENTATION_STYLE_ASSIGNMENT (( #148 ) ) ;
#76 = DIRECTION ( 'NONE',  ( 0.000000000000000000, 1.000000000000000000, 0.000000000000000000 ) ) ;
#77 = FACE_BOUND ( 'NONE', #91, .T. ) ;
#78 = EDGE_LOOP ( 'NONE', ( #297, #189, #93, #199 ) ) ;
#79 = LINE ( 'NONE', #345, #59 ) ;
#80 = DIRECTION ( 'NONE',  ( 2.970204768799481231E-17, 0.9701425001453318764, -0.2425356250363331911 ) ) ;
#81 = CARTESIAN_POINT ( 'NONE',  ( 0.000000000000000000, 0.000000000000000000, 0.000000000000000000 ) ) ;
#82 = EDGE_CURVE ( 'NONE', #200, #131, #285, .T. ) ;
#83 = VERTEX_POINT ( 'NONE', #291 ) ;
#84 = ORIENTED_EDGE ( 'NONE', *, *, #29, .T. ) ;
#85 = ADVANCED_FACE ( 'NONE', ( #14 ), #188, .T. ) ;
#86 = AXIS2_PLACEMENT_3D ( 'NONE', #367, #180, #181 ) ;
#87 = COLOUR_RGB ( '',1.000000000000000000, 1.000000000000000000, 1.000000000000000000 ) ;
#88 = EDGE_LOOP ( 'NONE', ( #187, #72, #372, #270 ) ) ;
#89 = VERTEX_POINT ( 'NONE', #171 ) ;
#90 = PRESENTATION_STYLE_ASSIGNMENT (( #4 ) ) ;
#91 = EDGE_LOOP ( 'NONE', ( #138, #84 ) ) ;
#92 = ORIENTED_EDGE ( 'NONE', *, *, #48, .T. ) ;
#93 = ORIENTED_EDGE ( 'NONE', *, *, #321, .T. ) ;
#94 = AXIS2_PLACEMENT_3D ( 'NONE', #9, #36, #96 ) ;
#95 = VERTEX_POINT ( 'NONE', #364 ) ;
#96 = DIRECTION ( 'NONE',  ( 0.000000000000000000, 0.000000000000000000, 1.000000000000000000 ) ) ;
#97 = DIRECTION ( 'NONE',  ( -0.000000000000000000, -1.000000000000000000, -0.000000000000000000 ) ) ;
#98 = PLANE ( 'NONE',  #104 ) ;
#99 = DIRECTION ( 'NONE',  ( 0.000000000000000000, 1.000000000000000000, 0.000000000000000000 ) ) ;
#100 = CONICAL_SURFACE ( 'NONE', #16, 455.0000000000000000, 0.2449786631268643655 ) ;
#101 = ORIENTED_EDGE ( 'NONE', *, *, #284, .F. ) ;
#102 = DIRECTION ( 'NONE',  ( 0.000000000000000000, 0.000000000000000000, -1.000000000000000000 ) ) ;
#103 = SURFACE_STYLE_FILL_AREA ( #120 ) ;
#104 = AXIS2_PLACEMENT_3D ( 'NONE', #207, #172, #352 ) ;
#105 = DIRECTION ( 'NONE',  ( -0.000000000000000000, -1.000000000000000000, -0.000000000000000000 ) ) ;
#106 = DIRECTION ( 'NONE',  ( -0.000000000000000000, -1.000000000000000000, -0.000000000000000000 ) ) ;
#107 = CIRCLE ( 'NONE', #252, 292.5000000000000000 ) ;
#108 = PLANE ( 'NONE',  #249 ) ;
#109 = DIRECTION ( 'NONE',  ( 0.000000000000000000, 0.000000000000000000, 1.000000000000000000 ) ) ;
#110 = DIRECTION ( 'NONE',  ( 0.000000000000000000, 0.9701425001453318764, 0.2425356250363331911 ) ) ;
#111 = ADVANCED_FACE ( 'NONE', ( #333, #286 ), #98, .F. ) ;
#112 = ORIENTED_EDGE ( 'NONE', *, *, #373, .T. ) ;
#113 = FACE_OUTER_BOUND ( 'NONE', #296, .T. ) ;
#114 =( LENGTH_UNIT ( ) NAMED_UNIT ( * ) SI_UNIT ( .MILLI., .METRE. ) );
#115 = FILL_AREA_STYLE ('',( #225 ) ) ;
#116 = CARTESIAN_POINT ( 'NONE',  ( 0.000000000000000000, 0.000000000000000000, 0.000000000000000000 ) ) ;
#117 = EDGE_LOOP ( 'NONE', ( #282, #143, #369, #362 ) ) ;
#118 = CARTESIAN_POINT ( 'NONE',  ( 0.000000000000000000, 0.000000000000000000, 292.5000000000000000 ) ) ;
#119 = CIRCLE ( 'NONE', #255, 292.5000000000000000 ) ;
#120 = FILL_AREA_STYLE ('',( #235 ) ) ;
#121 = ADVANCED_FACE ( 'NONE', ( #170 ), #371, .F. ) ;
#122 = CARTESIAN_POINT ( 'NONE',  ( 0.000000000000000000, 129.9999999999999432, 460.0000000000000000 ) ) ;
#123 = ORIENTED_EDGE ( 'NONE', *, *, #312, .F. ) ;
#124 = AXIS2_PLACEMENT_3D ( 'NONE', #130, #335, #109 ) ;
#125 = ORIENTED_EDGE ( 'NONE', *, *, #250, .F. ) ;
#126 = CIRCLE ( 'NONE', #25, 460.0000000000000000 ) ;
#127 = DIRECTION ( 'NONE',  ( 0.000000000000000000, 0.000000000000000000, 1.000000000000000000 ) ) ;
#128 = ORIENTED_EDGE ( 'NONE', *, *, #312, .T. ) ;
#129 = DIRECTION ( 'NONE',  ( -0.000000000000000000, -1.000000000000000000, -0.000000000000000000 ) ) ;
#130 = CARTESIAN_POINT ( 'NONE',  ( 0.000000000000000000, 0.000000000000000000, 0.000000000000000000 ) ) ;
#131 = VERTEX_POINT ( 'NONE', #246 ) ;
#132 = EDGE_CURVE ( 'NONE', #150, #7, #126, .T. ) ;
#133 = CIRCLE ( 'NONE', #238, 455.0000000000000000 ) ;
#134 = VECTOR ( 'NONE', #110, 1000.000000000000000 ) ;
#135 = ORIENTED_EDGE ( 'NONE', *, *, #132, .F. ) ;
#136 = VECTOR ( 'NONE', #196, 1000.000000000000000 ) ;
#137 = VERTEX_POINT ( 'NONE', #205 ) ;
#138 = ORIENTED_EDGE ( 'NONE', *, *, #342, .T. ) ;
#139 = ORIENTED_EDGE ( 'NONE', *, *, #368, .F. ) ;
#140 = CIRCLE ( 'NONE', #315, 455.0000000000000000 ) ;
#141 = CARTESIAN_POINT ( 'NONE',  ( 0.000000000000000000, 84.99999999999995737, 0.000000000000000000 ) ) ;
#142 = ORIENTED_EDGE ( 'NONE', *, *, #321, .F. ) ;
#143 = ORIENTED_EDGE ( 'NONE', *, *, #318, .T. ) ;
#144 = LINE ( 'NONE', #33, #136 ) ;
#145 = DIRECTION ( 'NONE',  ( 0.000000000000000000, 0.000000000000000000, 1.000000000000000000 ) ) ;
#146 = ADVANCED_FACE ( 'NONE', ( #113 ), #100, .T. ) ;
#147 = CARTESIAN_POINT ( 'NONE',  ( 0.000000000000000000, 129.9999999999999432, 0.000000000000000000 ) ) ;
#148 = SURFACE_STYLE_USAGE ( .BOTH. , #327 ) ;
#149 = VERTEX_POINT ( 'NONE', #42 ) ;
#150 = VERTEX_POINT ( 'NONE', #178 ) ;
#151 = EDGE_CURVE ( 'NONE', #89, #83, #107, .T. ) ;
#152 = ORIENTED_EDGE ( 'NONE', *, *, #368, .T. ) ;
#153 = DIRECTION ( 'NONE',  ( 0.000000000000000000, 0.000000000000000000, 1.000000000000000000 ) ) ;
#154 = ORIENTED_EDGE ( 'NONE', *, *, #250, .T. ) ;
#155 = CARTESIAN_POINT ( 'NONE',  ( 0.000000000000000000, 29.99999999999993605, -510.0000000000000000 ) ) ;
#156 = CARTESIAN_POINT ( 'NONE',  ( 0.000000000000000000, 0.000000000000000000, 0.000000000000000000 ) ) ;
#157 = DIRECTION ( 'NONE',  ( 0.000000000000000000, 0.000000000000000000, -1.000000000000000000 ) ) ;
#158 = ORIENTED_EDGE ( 'NONE', *, *, #43, .T. ) ;
#159 = CARTESIAN_POINT ( 'NONE',  ( 5.572142936120456814E-14, 29.99999999999994316, -455.0000000000000000 ) ) ;
#160 = EDGE_LOOP ( 'NONE', ( #294, #152, #123, #292 ) ) ;
#161 = ADVANCED_FACE ( 'NONE', ( #311 ), #197, .T. ) ;
#162 = UNCERTAINTY_MEASURE_WITH_UNIT (LENGTH_MEASURE( 1.000000000000000082E-05 ), #114, 'distance_accuracy_value', 'NONE');
#163 = CIRCLE ( 'NONE', #328, 447.5000000000000000 ) ;
#164 = VECTOR ( 'NONE', #80, 1000.000000000000000 ) ;
#165 = ORIENTED_EDGE ( 'NONE', *, *, #82, .F. ) ;
#166 = APPLICATION_CONTEXT ( 'automotive_design' ) ;
#167 = DIRECTION ( 'NONE',  ( 0.000000000000000000, 0.9961298500253810140, 0.08789381029635721931 ) ) ;
#168 = AXIS2_PLACEMENT_3D ( 'NONE', #147, #264, #46 ) ;
#169 = CARTESIAN_POINT ( 'NONE',  ( 0.000000000000000000, 84.99999999999995737, 455.0000000000000000 ) ) ;
#170 = FACE_OUTER_BOUND ( 'NONE', #117, .T. ) ;
#171 = CARTESIAN_POINT ( 'NONE',  ( 0.000000000000000000, 0.000000000000000000, 292.5000000000000000 ) ) ;
#172 = DIRECTION ( 'NONE',  ( 0.000000000000000000, 1.000000000000000000, 0.000000000000000000 ) ) ;
#173 =( NAMED_UNIT ( * ) SI_UNIT ( $, .STERADIAN. ) SOLID_ANGLE_UNIT ( ) );
#174 = DIRECTION ( 'NONE',  ( -0.000000000000000000, -1.000000000000000000, -0.000000000000000000 ) ) ;
#175 = AXIS2_PLACEMENT_3D ( 'NONE', #116, #254, #53 ) ;
#176 = LINE ( 'NONE', #118, #242 ) ;
#177 = DIRECTION ( 'NONE',  ( -0.000000000000000000, -1.000000000000000000, -0.000000000000000000 ) ) ;
#178 = CARTESIAN_POINT ( 'NONE',  ( 5.633375276077824388E-14, 129.9999999999999432, -460.0000000000000000 ) ) ;
#179 = CARTESIAN_POINT ( 'NONE',  ( 0.000000000000000000, 84.99999999999995737, 0.000000000000000000 ) ) ;
#180 = DIRECTION ( 'NONE',  ( 0.000000000000000000, -1.000000000000000000, -0.000000000000000000 ) ) ;
#181 = DIRECTION ( 'NONE',  ( 0.000000000000000000, 0.000000000000000000, -1.000000000000000000 ) ) ;
#182 = CARTESIAN_POINT ( 'NONE',  ( 0.000000000000000000, 29.99999999999993605, 0.000000000000000000 ) ) ;
#183 = ADVANCED_FACE ( 'NONE', ( #323 ), #269, .F. ) ;
#184 = ORIENTED_EDGE ( 'NONE', *, *, #228, .F. ) ;
#185 = AXIS2_PLACEMENT_3D ( 'NONE', #156, #243, #300 ) ;
#186 = EDGE_CURVE ( 'NONE', #7, #150, #39, .T. ) ;
#187 = ORIENTED_EDGE ( 'NONE', *, *, #48, .F. ) ;
#188 = CYLINDRICAL_SURFACE ( 'NONE', #185, 510.0000000000000000 ) ;
#189 = ORIENTED_EDGE ( 'NONE', *, *, #202, .T. ) ;
#190 = AXIS2_PLACEMENT_3D ( 'NONE', #47, #177, #231 ) ;
#191 = CARTESIAN_POINT ( 'NONE',  ( 0.000000000000000000, 85.00000000000000000, 0.000000000000000000 ) ) ;
#192 =( NAMED_UNIT ( * ) PLANE_ANGLE_UNIT ( ) SI_UNIT ( $, .RADIAN. ) );
#193 =( GEOMETRIC_REPRESENTATION_CONTEXT ( 3 ) GLOBAL_UNCERTAINTY_ASSIGNED_CONTEXT ( ( #339 ) ) GLOBAL_UNIT_ASSIGNED_CONTEXT ( ( #322, #194, #223 ) ) REPRESENTATION_CONTEXT ( 'NONE', 'WORKASPACE' ) );
#194 =( NAMED_UNIT ( * ) PLANE_ANGLE_UNIT ( ) SI_UNIT ( $, .RADIAN. ) );
#195 = CIRCLE ( 'NONE', #28, 510.0000000000000000 ) ;
#196 = DIRECTION ( 'NONE',  ( -0.000000000000000000, -1.000000000000000000, -0.000000000000000000 ) ) ;
#197 = CYLINDRICAL_SURFACE ( 'NONE', #214, 510.0000000000000000 ) ;
#198 = CARTESIAN_POINT ( 'NONE',  ( 0.000000000000000000, -5.551115123125782702E-14, 447.5000000000000000 ) ) ;
#199 = ORIENTED_EDGE ( 'NONE', *, *, #29, .F. ) ;
#200 = VERTEX_POINT ( 'NONE', #324 ) ;
#201 = DIRECTION ( 'NONE',  ( 0.000000000000000000, 1.000000000000000000, 0.000000000000000000 ) ) ;
#202 = EDGE_CURVE ( 'NONE', #83, #89, #119, .T. ) ;
#203 = VERTEX_POINT ( 'NONE', #155 ) ;
#204 = AXIS2_PLACEMENT_3D ( 'NONE', #237, #263, #102 ) ;
#205 = CARTESIAN_POINT ( 'NONE',  ( 5.526218681152431765E-14, -5.551115123125782702E-14, -447.5000000000000000 ) ) ;
#206 = FACE_OUTER_BOUND ( 'NONE', #310, .T. ) ;
#207 = CARTESIAN_POINT ( 'NONE',  ( -447.5000000000000000, -2.775557561562891351E-14, 0.000000000000000000 ) ) ;
#208 = EDGE_LOOP ( 'NONE', ( #128, #222 ) ) ;
#209 = DIRECTION ( 'NONE',  ( -0.000000000000000000, -1.000000000000000000, -0.000000000000000000 ) ) ;
#210 = DIRECTION ( 'NONE',  ( 0.000000000000000000, 0.000000000000000000, -1.000000000000000000 ) ) ;
#211 = DIRECTION ( 'NONE',  ( 0.000000000000000000, 0.000000000000000000, -1.000000000000000000 ) ) ;
#212 = VERTEX_POINT ( 'NONE', #68 ) ;
#213 = CARTESIAN_POINT ( 'NONE',  ( 0.000000000000000000, 29.99999999999994316, 0.000000000000000000 ) ) ;
#214 = AXIS2_PLACEMENT_3D ( 'NONE', #268, #106, #334 ) ;
#215 = DIRECTION ( 'NONE',  ( 0.000000000000000000, 0.000000000000000000, -1.000000000000000000 ) ) ;
#216 = EDGE_LOOP ( 'NONE', ( #165, #240 ) ) ;
#217 = AXIS2_PLACEMENT_3D ( 'NONE', #182, #279, #227 ) ;
#218 = ORIENTED_EDGE ( 'NONE', *, *, #151, .F. ) ;
#219 = FACE_OUTER_BOUND ( 'NONE', #78, .T. ) ;
#220 = EDGE_LOOP ( 'NONE', ( #112, #92 ) ) ;
#221 = ADVANCED_FACE ( 'NONE', ( #57, #253 ), #272, .F. ) ;
#222 = ORIENTED_EDGE ( 'NONE', *, *, #284, .T. ) ;
#223 =( NAMED_UNIT ( * ) SI_UNIT ( $, .STERADIAN. ) SOLID_ANGLE_UNIT ( ) );
#224 = AXIS2_PLACEMENT_3D ( 'NONE', #191, #314, #317 ) ;
#225 = FILL_AREA_STYLE_COLOUR ( '', #27 ) ;
#226 = VERTEX_POINT ( 'NONE', #198 ) ;
#227 = DIRECTION ( 'NONE',  ( 0.000000000000000000, 0.000000000000000000, -1.000000000000000000 ) ) ;
#228 = EDGE_CURVE ( 'NONE', #45, #212, #140, .T. ) ;
#229 = SURFACE_SIDE_STYLE ('',( #278 ) ) ;
#230 = ORIENTED_EDGE ( 'NONE', *, *, #342, .F. ) ;
#231 = DIRECTION ( 'NONE',  ( 0.000000000000000000, 0.000000000000000000, -1.000000000000000000 ) ) ;
#232 = DIRECTION ( 'NONE',  ( 0.000000000000000000, 1.000000000000000000, 0.000000000000000000 ) ) ;
#233 = ADVANCED_FACE ( 'NONE', ( #206, #77 ), #108, .F. ) ;
#234 = LINE ( 'NONE', #248, #134 ) ;
#235 = FILL_AREA_STYLE_COLOUR ( '', #87 ) ;
#236 = EDGE_LOOP ( 'NONE', ( #218, #13 ) ) ;
#237 = CARTESIAN_POINT ( 'NONE',  ( 0.000000000000000000, 85.00000000000000000, 0.000000000000000000 ) ) ;
#238 = AXIS2_PLACEMENT_3D ( 'NONE', #69, #174, #12 ) ;
#239 = APPLICATION_PROTOCOL_DEFINITION ( 'draft international standard', 'automotive_design', 1998, #71 ) ;
#240 = ORIENTED_EDGE ( 'NONE', *, *, #43, .F. ) ;
#241 = PRODUCT_DEFINITION_FORMATION_WITH_SPECIFIED_SOURCE ( 'ANY', '', #326, .NOT_KNOWN. ) ;
#242 = VECTOR ( 'NONE', #167, 1000.000000000000000 ) ;
#243 = DIRECTION ( 'NONE',  ( -0.000000000000000000, -1.000000000000000000, -0.000000000000000000 ) ) ;
#244 = SHAPE_DEFINITION_REPRESENTATION ( #358, #8 ) ;
#245 = DIRECTION ( 'NONE',  ( 0.000000000000000000, 0.000000000000000000, -1.000000000000000000 ) ) ;
#246 = CARTESIAN_POINT ( 'NONE',  ( 6.245698675651501391E-14, 129.9999999999999432, 510.0000000000000000 ) ) ;
#247 = CIRCLE ( 'NONE', #217, 510.0000000000000000 ) ;
#248 = CARTESIAN_POINT ( 'NONE',  ( 0.000000000000000000, 29.99999999999994316, 455.0000000000000000 ) ) ;
#249 = AXIS2_PLACEMENT_3D ( 'NONE', #301, #274, #215 ) ;
#250 = EDGE_CURVE ( 'NONE', #212, #45, #66, .T. ) ;
#251 = VECTOR ( 'NONE', #61, 999.9999999999998863 ) ;
#252 = AXIS2_PLACEMENT_3D ( 'NONE', #331, #129, #271 ) ;
#253 = FACE_BOUND ( 'NONE', #288, .T. ) ;
#254 = DIRECTION ( 'NONE',  ( 0.000000000000000000, 0.000000000000000000, 1.000000000000000000 ) ) ;
#255 = AXIS2_PLACEMENT_3D ( 'NONE', #81, #365, #210 ) ;
#256 = CARTESIAN_POINT ( 'NONE',  ( 5.572142936120456814E-14, 84.99999999999995737, -455.0000000000000000 ) ) ;
#257 = CARTESIAN_POINT ( 'NONE',  ( 0.000000000000000000, -5.551115123125782702E-14, 0.000000000000000000 ) ) ;
#258 = MECHANICAL_DESIGN_GEOMETRIC_PRESENTATION_REPRESENTATION (  '', ( #5 ), #193 ) ;
#259 = CARTESIAN_POINT ( 'NONE',  ( 6.245698675651501391E-14, 29.99999999999993605, 510.0000000000000000 ) ) ;
#260 = LINE ( 'NONE', #303, #21 ) ;
#261 = DIRECTION ( 'NONE',  ( 1.076388734442985418E-17, 0.9961298500253810140, -0.08789381029635721931 ) ) ;
#262 = DIRECTION ( 'NONE',  ( 0.000000000000000000, 0.000000000000000000, 1.000000000000000000 ) ) ;
#263 = DIRECTION ( 'NONE',  ( -0.000000000000000000, -1.000000000000000000, -0.000000000000000000 ) ) ;
#264 = DIRECTION ( 'NONE',  ( -0.000000000000000000, -1.000000000000000000, -0.000000000000000000 ) ) ;
#265 = ORIENTED_EDGE ( 'NONE', *, *, #306, .F. ) ;
#266 = EDGE_CURVE ( 'NONE', #226, #212, #234, .T. ) ;
#267 = CARTESIAN_POINT ( 'NONE',  ( 0.000000000000000000, 129.9999999999999432, 0.000000000000000000 ) ) ;
#268 = CARTESIAN_POINT ( 'NONE',  ( 0.000000000000000000, 0.000000000000000000, 0.000000000000000000 ) ) ;
#269 = CONICAL_SURFACE ( 'NONE', #62, 455.0000000000000000, 0.1106572211738957451 ) ;
#270 = ORIENTED_EDGE ( 'NONE', *, *, #266, .F. ) ;
#271 = DIRECTION ( 'NONE',  ( 0.000000000000000000, 0.000000000000000000, -1.000000000000000000 ) ) ;
#272 = PLANE ( 'NONE',  #86 ) ;
#273 = PRODUCT_DEFINITION_CONTEXT ( 'detailed design', #71, 'design' ) ;
#274 = DIRECTION ( 'NONE',  ( 0.000000000000000000, -1.000000000000000000, -0.000000000000000000 ) ) ;
#275 = ADVANCED_FACE ( 'NONE', ( #219 ), #50, .F. ) ;
#276 = LINE ( 'NONE', #256, #251 ) ;
#277 = EDGE_LOOP ( 'NONE', ( #125, #184 ) ) ;
#278 = SURFACE_STYLE_FILL_AREA ( #115 ) ;
#279 = DIRECTION ( 'NONE',  ( -0.000000000000000000, -1.000000000000000000, -0.000000000000000000 ) ) ;
#280 = AXIS2_PLACEMENT_3D ( 'NONE', #24, #20, #157 ) ;
#281 = EDGE_CURVE ( 'NONE', #18, #7, #260, .T. ) ;
#282 = ORIENTED_EDGE ( 'NONE', *, *, #23, .T. ) ;
#283 = DIRECTION ( 'NONE',  ( -0.000000000000000000, -1.000000000000000000, -0.000000000000000000 ) ) ;
#284 = EDGE_CURVE ( 'NONE', #313, #203, #247, .T. ) ;
#285 = CIRCLE ( 'NONE', #190, 510.0000000000000000 ) ;
#286 = FACE_OUTER_BOUND ( 'NONE', #220, .T. ) ;
#287 = DIRECTION ( 'NONE',  ( 0.000000000000000000, 0.000000000000000000, -1.000000000000000000 ) ) ;
#288 = EDGE_LOOP ( 'NONE', ( #58, #330 ) ) ;
#289 = CIRCLE ( 'NONE', #224, 300.0000000000000000 ) ;
#290 = CARTESIAN_POINT ( 'NONE',  ( 0.000000000000000000, 84.99999999999995737, 0.000000000000000000 ) ) ;
#291 = CARTESIAN_POINT ( 'NONE',  ( 3.628016142474033813E-14, 0.000000000000000000, -292.5000000000000000 ) ) ;
#292 = ORIENTED_EDGE ( 'NONE', *, *, #355, .F. ) ;
#293 = AXIS2_PLACEMENT_3D ( 'NONE', #70, #332, #19 ) ;
#294 = ORIENTED_EDGE ( 'NONE', *, *, #82, .T. ) ;
#295 = EDGE_CURVE ( 'NONE', #137, #45, #31, .T. ) ;
#296 = EDGE_LOOP ( 'NONE', ( #63, #302, #74, #154 ) ) ;
#297 = ORIENTED_EDGE ( 'NONE', *, *, #60, .F. ) ;
#298 = CONICAL_SURFACE ( 'NONE', #34, 292.5000000000000000, 0.08800737352774083699 ) ;
#299 = CARTESIAN_POINT ( 'NONE',  ( 3.582091887506008132E-14, 0.000000000000000000, -292.5000000000000000 ) ) ;
#300 = DIRECTION ( 'NONE',  ( 0.000000000000000000, 0.000000000000000000, -1.000000000000000000 ) ) ;
#301 = CARTESIAN_POINT ( 'NONE',  ( -455.0000000000000000, 84.99999999999997158, 0.000000000000000000 ) ) ;
#302 = ORIENTED_EDGE ( 'NONE', *, *, #373, .F. ) ;
#303 = CARTESIAN_POINT ( 'NONE',  ( 0.000000000000000000, 84.99999999999995737, 455.0000000000000000 ) ) ;
#304 = AXIS2_PLACEMENT_3D ( 'NONE', #141, #343, #1 ) ;
#305 = EDGE_LOOP ( 'NONE', ( #374, #344, #230, #142 ) ) ;
#306 = EDGE_CURVE ( 'NONE', #149, #18, #361, .T. ) ;
#307 = ADVANCED_FACE ( 'NONE', ( #348 ), #340, .T. ) ;
#308 = CIRCLE ( 'NONE', #44, 447.5000000000000000 ) ;
#309 = MECHANICAL_DESIGN_GEOMETRIC_PRESENTATION_REPRESENTATION (  '', ( #357 ), #370 ) ;
#310 = EDGE_LOOP ( 'NONE', ( #22, #265 ) ) ;
#311 = FACE_OUTER_BOUND ( 'NONE', #55, .T. ) ;
#312 = EDGE_CURVE ( 'NONE', #203, #313, #195, .T. ) ;
#313 = VERTEX_POINT ( 'NONE', #259 ) ;
#314 = DIRECTION ( 'NONE',  ( -0.000000000000000000, -1.000000000000000000, -0.000000000000000000 ) ) ;
#315 = AXIS2_PLACEMENT_3D ( 'NONE', #213, #336, #211 ) ;
#316 = CARTESIAN_POINT ( 'NONE',  ( 0.000000000000000000, 0.000000000000000000, 0.000000000000000000 ) ) ;
#317 = DIRECTION ( 'NONE',  ( 0.000000000000000000, 0.000000000000000000, -1.000000000000000000 ) ) ;
#318 = EDGE_CURVE ( 'NONE', #149, #150, #276, .T. ) ;
#319 = PRODUCT_RELATED_PRODUCT_CATEGORY ( 'part', '', ( #326 ) ) ;
#320 = FACE_OUTER_BOUND ( 'NONE', #305, .T. ) ;
#321 = EDGE_CURVE ( 'NONE', #89, #95, #176, .T. ) ;
#322 =( LENGTH_UNIT ( ) NAMED_UNIT ( * ) SI_UNIT ( .MILLI., .METRE. ) );
#323 = FACE_OUTER_BOUND ( 'NONE', #2, .T. ) ;
#324 = CARTESIAN_POINT ( 'NONE',  ( 0.000000000000000000, 129.9999999999999432, -510.0000000000000000 ) ) ;
#325 = CARTESIAN_POINT ( 'NONE',  ( 5.572142936120456814E-14, 29.99999999999994316, -455.0000000000000000 ) ) ;
#326 = PRODUCT ( 'ÆÁÈ.25.10 Êîëüöî îïîðíîå ÊÎ-×', 'ÆÁÈ.25.10 Êîëüöî îïîðíîå ÊÎ-×', '', ( #350 ) ) ;
#327 = SURFACE_SIDE_STYLE ('',( #103 ) ) ;
#328 = AXIS2_PLACEMENT_3D ( 'NONE', #257, #97, #287 ) ;
#329 = VECTOR ( 'NONE', #261, 1000.000000000000000 ) ;
#330 = ORIENTED_EDGE ( 'NONE', *, *, #132, .T. ) ;
#331 = CARTESIAN_POINT ( 'NONE',  ( 0.000000000000000000, 0.000000000000000000, 0.000000000000000000 ) ) ;
#332 = DIRECTION ( 'NONE',  ( -0.000000000000000000, -1.000000000000000000, -0.000000000000000000 ) ) ;
#333 = FACE_BOUND ( 'NONE', #236, .T. ) ;
#334 = DIRECTION ( 'NONE',  ( 0.000000000000000000, 0.000000000000000000, -1.000000000000000000 ) ) ;
#335 = DIRECTION ( 'NONE',  ( 0.000000000000000000, 1.000000000000000000, 0.000000000000000000 ) ) ;
#336 = DIRECTION ( 'NONE',  ( -0.000000000000000000, -1.000000000000000000, -0.000000000000000000 ) ) ;
#337 = AXIS2_PLACEMENT_3D ( 'NONE', #290, #76, #127 ) ;
#338 = VERTEX_POINT ( 'NONE', #346 ) ;
#339 = UNCERTAINTY_MEASURE_WITH_UNIT (LENGTH_MEASURE( 1.000000000000000082E-05 ), #322, 'distance_accuracy_value', 'NONE');
#340 = CONICAL_SURFACE ( 'NONE', #94, 455.0000000000000000, 0.2449786631268643655 ) ;
#341 =( GEOMETRIC_REPRESENTATION_CONTEXT ( 3 ) GLOBAL_UNCERTAINTY_ASSIGNED_CONTEXT ( ( #162 ) ) GLOBAL_UNIT_ASSIGNED_CONTEXT ( ( #114, #192, #35 ) ) REPRESENTATION_CONTEXT ( 'NONE', 'WORKASPACE' ) );
#342 = EDGE_CURVE ( 'NONE', #95, #338, #289, .T. ) ;
#343 = DIRECTION ( 'NONE',  ( -0.000000000000000000, -1.000000000000000000, -0.000000000000000000 ) ) ;
#344 = ORIENTED_EDGE ( 'NONE', *, *, #60, .T. ) ;
#345 = CARTESIAN_POINT ( 'NONE',  ( 6.245698675651501391E-14, 0.000000000000000000, 510.0000000000000000 ) ) ;
#346 = CARTESIAN_POINT ( 'NONE',  ( 3.673940397442059493E-14, 85.00000000000000000, -300.0000000000000000 ) ) ;
#347 = ORIENTED_EDGE ( 'NONE', *, *, #355, .T. ) ;
#348 = FACE_OUTER_BOUND ( 'NONE', #88, .T. ) ;
#349 = CARTESIAN_POINT ( 'NONE',  ( 0.000000000000000000, 29.99999999999993605, 0.000000000000000000 ) ) ;
#350 = PRODUCT_CONTEXT ( 'NONE', #166, 'mechanical' ) ;
#351 = CLOSED_SHELL ( 'NONE', ( #85, #121, #353, #307, #146, #111, #275, #233, #183, #221, #161, #40 ) ) ;
#352 = DIRECTION ( 'NONE',  ( 0.000000000000000000, -0.000000000000000000, 1.000000000000000000 ) ) ;
#353 = ADVANCED_FACE ( 'NONE', ( #320 ), #298, .F. ) ;
#354 = DIRECTION ( 'NONE',  ( 0.000000000000000000, 0.000000000000000000, -1.000000000000000000 ) ) ;
#355 = EDGE_CURVE ( 'NONE', #200, #203, #144, .T. ) ;
#356 =( NAMED_UNIT ( * ) PLANE_ANGLE_UNIT ( ) SI_UNIT ( $, .RADIAN. ) );
#357 = STYLED_ITEM ( 'NONE', ( #75 ), #30 ) ;
#358 = PRODUCT_DEFINITION_SHAPE ( 'NONE', 'NONE',  #366 ) ;
#359 = CIRCLE ( 'NONE', #204, 300.0000000000000000 ) ;
#360 = CARTESIAN_POINT ( 'NONE',  ( 0.000000000000000000, -5.551115123125782702E-14, 0.000000000000000000 ) ) ;
#361 = CIRCLE ( 'NONE', #304, 455.0000000000000000 ) ;
#362 = ORIENTED_EDGE ( 'NONE', *, *, #281, .F. ) ;
#363 = CARTESIAN_POINT ( 'NONE',  ( 0.000000000000000000, 29.99999999999994316, 0.000000000000000000 ) ) ;
#364 = CARTESIAN_POINT ( 'NONE',  ( 0.000000000000000000, 85.00000000000000000, 300.0000000000000000 ) ) ;
#365 = DIRECTION ( 'NONE',  ( -0.000000000000000000, -1.000000000000000000, -0.000000000000000000 ) ) ;
#366 = PRODUCT_DEFINITION ( 'UNKNOWN', '', #241, #273 ) ;
#367 = CARTESIAN_POINT ( 'NONE',  ( -510.0000000000000000, 129.9999999999999432, 0.000000000000000000 ) ) ;
#368 = EDGE_CURVE ( 'NONE', #131, #313, #79, .T. ) ;
#369 = ORIENTED_EDGE ( 'NONE', *, *, #186, .F. ) ;
#370 =( GEOMETRIC_REPRESENTATION_CONTEXT ( 3 ) GLOBAL_UNCERTAINTY_ASSIGNED_CONTEXT ( ( #17 ) ) GLOBAL_UNIT_ASSIGNED_CONTEXT ( ( #73, #356, #173 ) ) REPRESENTATION_CONTEXT ( 'NONE', 'WORKASPACE' ) );
#371 = CONICAL_SURFACE ( 'NONE', #337, 455.0000000000000000, 0.1106572211738957451 ) ;
#372 = ORIENTED_EDGE ( 'NONE', *, *, #228, .T. ) ;
#373 = EDGE_CURVE ( 'NONE', #226, #137, #163, .T. ) ;
#374 = ORIENTED_EDGE ( 'NONE', *, *, #151, .T. ) ;
ENDSEC;
END-ISO-10303-21;
