ISO-10303-21;
HEADER;
FILE_DESCRIPTION (( 'STEP AP214' ),
    '1' );
FILE_NAME ('ÆÁÈ.162.20 Ïëèòà ÏÀÊÑ 1,4õ0,8_áåòîí.STEP',
    '2021-09-14T05:58:57',
    ( '' ),
    ( '' ),
    'SwSTEP 2.0',
    'SolidWorks 2018',
    '' );
FILE_SCHEMA (( 'AUTOMOTIVE_DESIGN' ));
ENDSEC;

DATA;
#1 = CARTESIAN_POINT ( 'NONE',  ( -700.0000000000000000, 0.000000000000000000, -400.0000000000001137 ) ) ;
#2 = LINE ( 'NONE', #37, #139 ) ;
#3 = ORIENTED_EDGE ( 'NONE', *, *, #11, .F. ) ;
#4 = PRESENTATION_LAYER_ASSIGNMENT (  '', '', ( #197 ) ) ;
#5 = MANIFOLD_SOLID_BREP ( 'Áîáûøêà-Âûòÿíóòü1', #97 ) ;
#6 = VECTOR ( 'NONE', #106, 1000.000000000000000 ) ;
#7 = ORIENTED_EDGE ( 'NONE', *, *, #186, .F. ) ;
#8 = CARTESIAN_POINT ( 'NONE',  ( -700.0000000000000000, 150.0000000000000000, 399.9999999999999432 ) ) ;
#9 = ADVANCED_FACE ( 'NONE', ( #154 ), #34, .F. ) ;
#10 = ORIENTED_EDGE ( 'NONE', *, *, #85, .F. ) ;
#11 = EDGE_CURVE ( 'NONE', #198, #104, #50, .T. ) ;
#12 = CARTESIAN_POINT ( 'NONE',  ( 0.000000000000000000, 0.000000000000000000, 0.000000000000000000 ) ) ;
#13 = APPLICATION_PROTOCOL_DEFINITION ( 'draft international standard', 'automotive_design', 1998, #76 ) ;
#14 = SURFACE_STYLE_USAGE ( .BOTH. , #60 ) ;
#15 = ORIENTED_EDGE ( 'NONE', *, *, #85, .T. ) ;
#16 = DIRECTION ( 'NONE',  ( 7.930164461608261179E-17, 0.000000000000000000, -1.000000000000000000 ) ) ;
#17 = FILL_AREA_STYLE_COLOUR ( '', #72 ) ;
#18 = PRODUCT_DEFINITION_FORMATION_WITH_SPECIFIED_SOURCE ( 'ANY', '', #130, .NOT_KNOWN. ) ;
#19 = EDGE_LOOP ( 'NONE', ( #115, #102, #109, #117 ) ) ;
#20 = DIRECTION ( 'NONE',  ( -0.000000000000000000, -1.000000000000000000, -0.000000000000000000 ) ) ;
#21 = ORIENTED_EDGE ( 'NONE', *, *, #186, .T. ) ;
#22 = LINE ( 'NONE', #28, #6 ) ;
#23 = LINE ( 'NONE', #201, #101 ) ;
#24 = VERTEX_POINT ( 'NONE', #144 ) ;
#25 = PLANE ( 'NONE',  #160 ) ;
#26 = LINE ( 'NONE', #122, #110 ) ;
#27 =( NAMED_UNIT ( * ) SI_UNIT ( $, .STERADIAN. ) SOLID_ANGLE_UNIT ( ) );
#28 = CARTESIAN_POINT ( 'NONE',  ( 700.0000000000000000, 150.0000000000000000, 400.0000000000000568 ) ) ;
#29 = PLANE ( 'NONE',  #33 ) ;
#30 = ORIENTED_EDGE ( 'NONE', *, *, #78, .T. ) ;
#31 = CARTESIAN_POINT ( 'NONE',  ( -700.0000000000000000, 150.0000000000000000, -400.0000000000001137 ) ) ;
#32 = DIRECTION ( 'NONE',  ( 1.000000000000000000, 0.000000000000000000, 7.930164461608261179E-17 ) ) ;
#33 = AXIS2_PLACEMENT_3D ( 'NONE', #48, #138, #168 ) ;
#34 = PLANE ( 'NONE',  #70 ) ;
#35 = VECTOR ( 'NONE', #74, 1000.000000000000000 ) ;
#36 = CARTESIAN_POINT ( 'NONE',  ( 700.0000000000000000, 150.0000000000000000, 400.0000000000000568 ) ) ;
#37 = CARTESIAN_POINT ( 'NONE',  ( -700.0000000000000000, 150.0000000000000000, -400.0000000000001137 ) ) ;
#38 = FACE_OUTER_BOUND ( 'NONE', #62, .T. ) ;
#39 = PRESENTATION_STYLE_ASSIGNMENT (( #184 ) ) ;
#40 = EDGE_CURVE ( 'NONE', #104, #66, #173, .T. ) ;
#41 = CARTESIAN_POINT ( 'NONE',  ( -700.0000000000000000, 150.0000000000000000, 399.9999999999999432 ) ) ;
#42 = LINE ( 'NONE', #36, #135 ) ;
#43 = PRESENTATION_LAYER_ASSIGNMENT (  '', '', ( #163 ) ) ;
#44 = SURFACE_STYLE_FILL_AREA ( #64 ) ;
#45 = DIRECTION ( 'NONE',  ( 0.000000000000000000, 0.000000000000000000, 1.000000000000000000 ) ) ;
#46 = DIRECTION ( 'NONE',  ( 0.000000000000000000, 0.000000000000000000, 1.000000000000000000 ) ) ;
#47 = SURFACE_SIDE_STYLE ('',( #54 ) ) ;
#48 = CARTESIAN_POINT ( 'NONE',  ( 700.0000000000000000, 150.0000000000000000, 400.0000000000000568 ) ) ;
#49 = CARTESIAN_POINT ( 'NONE',  ( 700.0000000000000000, 150.0000000000000000, -400.0000000000000000 ) ) ;
#50 = LINE ( 'NONE', #31, #83 ) ;
#51 = CARTESIAN_POINT ( 'NONE',  ( 700.0000000000000000, 0.000000000000000000, -400.0000000000000000 ) ) ;
#52 = DIRECTION ( 'NONE',  ( 0.000000000000000000, 0.000000000000000000, -1.000000000000000000 ) ) ;
#53 = EDGE_CURVE ( 'NONE', #86, #180, #166, .T. ) ;
#54 = SURFACE_STYLE_FILL_AREA ( #136 ) ;
#55 = FACE_OUTER_BOUND ( 'NONE', #19, .T. ) ;
#56 = ORIENTED_EDGE ( 'NONE', *, *, #171, .F. ) ;
#57 = PRODUCT_CONTEXT ( 'NONE', #76, 'mechanical' ) ;
#58 = PLANE ( 'NONE',  #82 ) ;
#59 = DIRECTION ( 'NONE',  ( -0.000000000000000000, -1.000000000000000000, -0.000000000000000000 ) ) ;
#60 = SURFACE_SIDE_STYLE ('',( #44 ) ) ;
#61 = ADVANCED_FACE ( 'NONE', ( #91 ), #158, .T. ) ;
#62 = EDGE_LOOP ( 'NONE', ( #169, #155, #81, #21 ) ) ;
#63 = COLOUR_RGB ( '',1.000000000000000000, 1.000000000000000000, 1.000000000000000000 ) ;
#64 = FILL_AREA_STYLE ('',( #17 ) ) ;
#65 = CARTESIAN_POINT ( 'NONE',  ( -700.0000000000000000, 150.0000000000000000, 399.9999999999999432 ) ) ;
#66 = VERTEX_POINT ( 'NONE', #51 ) ;
#67 = FACE_OUTER_BOUND ( 'NONE', #100, .T. ) ;
#68 = ORIENTED_EDGE ( 'NONE', *, *, #53, .T. ) ;
#69 = MECHANICAL_DESIGN_GEOMETRIC_PRESENTATION_REPRESENTATION (  '', ( #163 ), #96 ) ;
#70 = AXIS2_PLACEMENT_3D ( 'NONE', #141, #16, #123 ) ;
#71 = LINE ( 'NONE', #164, #194 ) ;
#72 = COLOUR_RGB ( '',1.000000000000000000, 1.000000000000000000, 1.000000000000000000 ) ;
#73 = ADVANCED_FACE ( 'NONE', ( #177 ), #189, .F. ) ;
#74 = DIRECTION ( 'NONE',  ( 0.000000000000000000, 0.000000000000000000, -1.000000000000000000 ) ) ;
#75 = DIRECTION ( 'NONE',  ( 0.000000000000000000, 0.000000000000000000, -1.000000000000000000 ) ) ;
#76 = APPLICATION_CONTEXT ( 'automotive_design' ) ;
#77 = VERTEX_POINT ( 'NONE', #1 ) ;
#78 = EDGE_CURVE ( 'NONE', #24, #104, #42, .T. ) ;
#79 = CARTESIAN_POINT ( 'NONE',  ( 0.000000000000000000, 150.0000000000000000, 0.000000000000000000 ) ) ;
#80 = AXIS2_PLACEMENT_3D ( 'NONE', #113, #126, #172 ) ;
#81 = ORIENTED_EDGE ( 'NONE', *, *, #78, .F. ) ;
#82 = AXIS2_PLACEMENT_3D ( 'NONE', #181, #165, #46 ) ;
#83 = VECTOR ( 'NONE', #32, 1000.000000000000000 ) ;
#84 = LINE ( 'NONE', #8, #149 ) ;
#85 = EDGE_CURVE ( 'NONE', #86, #198, #196, .T. ) ;
#86 = VERTEX_POINT ( 'NONE', #41 ) ;
#87 = CARTESIAN_POINT ( 'NONE',  ( -700.0000000000000000, 150.0000000000000000, -400.0000000000001137 ) ) ;
#88 = MECHANICAL_DESIGN_GEOMETRIC_PRESENTATION_REPRESENTATION (  '', ( #197 ), #176 ) ;
#89 = DIRECTION ( 'NONE',  ( 1.000000000000000000, 0.000000000000000000, 7.930164461608261179E-17 ) ) ;
#90 = EDGE_CURVE ( 'NONE', #198, #77, #2, .T. ) ;
#91 = FACE_OUTER_BOUND ( 'NONE', #193, .T. ) ;
#92 = DIRECTION ( 'NONE',  ( 1.000000000000000000, 0.000000000000000000, 7.930164461608261179E-17 ) ) ;
#93 =( LENGTH_UNIT ( ) NAMED_UNIT ( * ) SI_UNIT ( .MILLI., .METRE. ) );
#94 = ORIENTED_EDGE ( 'NONE', *, *, #114, .T. ) ;
#95 = EDGE_CURVE ( 'NONE', #77, #66, #23, .T. ) ;
#96 =( GEOMETRIC_REPRESENTATION_CONTEXT ( 3 ) GLOBAL_UNCERTAINTY_ASSIGNED_CONTEXT ( ( #174 ) ) GLOBAL_UNIT_ASSIGNED_CONTEXT ( ( #93, #202, #107 ) ) REPRESENTATION_CONTEXT ( 'NONE', 'WORKASPACE' ) );
#97 = CLOSED_SHELL ( 'NONE', ( #137, #9, #200, #120, #73, #61 ) ) ;
#98 = DIRECTION ( 'NONE',  ( 0.000000000000000000, -1.000000000000000000, 0.000000000000000000 ) ) ;
#99 = DIRECTION ( 'NONE',  ( 0.000000000000000000, 0.000000000000000000, -1.000000000000000000 ) ) ;
#100 = EDGE_LOOP ( 'NONE', ( #56, #128, #15, #190 ) ) ;
#101 = VECTOR ( 'NONE', #92, 1000.000000000000000 ) ;
#102 = ORIENTED_EDGE ( 'NONE', *, *, #90, .F. ) ;
#103 = PRODUCT_RELATED_PRODUCT_CATEGORY ( 'part', '', ( #130 ) ) ;
#104 = VERTEX_POINT ( 'NONE', #199 ) ;
#105 = CARTESIAN_POINT ( 'NONE',  ( -700.0000000000000000, 150.0000000000000000, -400.0000000000001137 ) ) ;
#106 = DIRECTION ( 'NONE',  ( -0.000000000000000000, -1.000000000000000000, -0.000000000000000000 ) ) ;
#107 =( NAMED_UNIT ( * ) SI_UNIT ( $, .STERADIAN. ) SOLID_ANGLE_UNIT ( ) );
#108 = VECTOR ( 'NONE', #99, 1000.000000000000000 ) ;
#109 = ORIENTED_EDGE ( 'NONE', *, *, #11, .T. ) ;
#110 = VECTOR ( 'NONE', #89, 1000.000000000000000 ) ;
#111 = PRESENTATION_STYLE_ASSIGNMENT (( #14 ) ) ;
#112 = DIRECTION ( 'NONE',  ( 0.000000000000000000, -0.000000000000000000, -1.000000000000000000 ) ) ;
#113 = CARTESIAN_POINT ( 'NONE',  ( 0.000000000000000000, 0.000000000000000000, 0.000000000000000000 ) ) ;
#114 = EDGE_CURVE ( 'NONE', #86, #24, #84, .T. ) ;
#115 = ORIENTED_EDGE ( 'NONE', *, *, #95, .F. ) ;
#116 = EDGE_CURVE ( 'NONE', #180, #146, #26, .T. ) ;
#117 = ORIENTED_EDGE ( 'NONE', *, *, #40, .T. ) ;
#118 = DIRECTION ( 'NONE',  ( -1.000000000000000000, 0.000000000000000000, -7.930164461608261179E-17 ) ) ;
#119 =( NAMED_UNIT ( * ) PLANE_ANGLE_UNIT ( ) SI_UNIT ( $, .RADIAN. ) );
#120 = ADVANCED_FACE ( 'NONE', ( #55 ), #25, .T. ) ;
#121 = CARTESIAN_POINT ( 'NONE',  ( 700.0000000000000000, 0.000000000000000000, 400.0000000000000568 ) ) ;
#122 = CARTESIAN_POINT ( 'NONE',  ( -700.0000000000000000, 0.000000000000000000, 399.9999999999999432 ) ) ;
#123 = DIRECTION ( 'NONE',  ( -1.000000000000000000, 0.000000000000000000, -7.930164461608261179E-17 ) ) ;
#124 = AXIS2_PLACEMENT_3D ( 'NONE', #79, #98, #112 ) ;
#125 = EDGE_LOOP ( 'NONE', ( #185, #7, #150, #68 ) ) ;
#126 = DIRECTION ( 'NONE',  ( 0.000000000000000000, -1.000000000000000000, 0.000000000000000000 ) ) ;
#127 = VECTOR ( 'NONE', #20, 1000.000000000000000 ) ;
#128 = ORIENTED_EDGE ( 'NONE', *, *, #53, .F. ) ;
#129 = UNCERTAINTY_MEASURE_WITH_UNIT (LENGTH_MEASURE( 1.000000000000000082E-05 ), #170, 'distance_accuracy_value', 'NONE');
#130 = PRODUCT ( 'ÆÁÈ.162.20 Ïëèòà ÏÀÊÑ 1,4õ0,8_áåòîí', 'ÆÁÈ.162.20 Ïëèòà ÏÀÊÑ 1,4õ0,8_áåòîí', '', ( #57 ) ) ;
#131 = VECTOR ( 'NONE', #157, 1000.000000000000000 ) ;
#132 = ORIENTED_EDGE ( 'NONE', *, *, #171, .T. ) ;
#133 =( LENGTH_UNIT ( ) NAMED_UNIT ( * ) SI_UNIT ( .MILLI., .METRE. ) );
#134 = ORIENTED_EDGE ( 'NONE', *, *, #95, .T. ) ;
#135 = VECTOR ( 'NONE', #52, 1000.000000000000000 ) ;
#136 = FILL_AREA_STYLE ('',( #167 ) ) ;
#137 = ADVANCED_FACE ( 'NONE', ( #67 ), #58, .T. ) ;
#138 = DIRECTION ( 'NONE',  ( -1.000000000000000000, 0.000000000000000000, 0.000000000000000000 ) ) ;
#139 = VECTOR ( 'NONE', #59, 1000.000000000000000 ) ;
#140 =( NAMED_UNIT ( * ) SI_UNIT ( $, .STERADIAN. ) SOLID_ANGLE_UNIT ( ) );
#141 = CARTESIAN_POINT ( 'NONE',  ( -700.0000000000000000, 150.0000000000000000, 399.9999999999999432 ) ) ;
#142 =( NAMED_UNIT ( * ) PLANE_ANGLE_UNIT ( ) SI_UNIT ( $, .RADIAN. ) );
#143 = CARTESIAN_POINT ( 'NONE',  ( -700.0000000000000000, 150.0000000000000000, 399.9999999999999432 ) ) ;
#144 = CARTESIAN_POINT ( 'NONE',  ( 700.0000000000000000, 150.0000000000000000, 400.0000000000000568 ) ) ;
#145 = AXIS2_PLACEMENT_3D ( 'NONE', #12, #45, #148 ) ;
#146 = VERTEX_POINT ( 'NONE', #121 ) ;
#147 = ORIENTED_EDGE ( 'NONE', *, *, #116, .F. ) ;
#148 = DIRECTION ( 'NONE',  ( 1.000000000000000000, 0.000000000000000000, 0.000000000000000000 ) ) ;
#149 = VECTOR ( 'NONE', #151, 1000.000000000000000 ) ;
#150 = ORIENTED_EDGE ( 'NONE', *, *, #114, .F. ) ;
#151 = DIRECTION ( 'NONE',  ( 1.000000000000000000, 0.000000000000000000, 7.930164461608261179E-17 ) ) ;
#152 = ADVANCED_BREP_SHAPE_REPRESENTATION ( '¦+L.162.20 ¦ûøªð ¦L¦T 1,4¿0,8_ñõªþý', ( #5, #145 ), #156 ) ;
#153 = DIRECTION ( 'NONE',  ( 7.930164461608261179E-17, 0.000000000000000000, -1.000000000000000000 ) ) ;
#154 = FACE_OUTER_BOUND ( 'NONE', #125, .T. ) ;
#155 = ORIENTED_EDGE ( 'NONE', *, *, #40, .F. ) ;
#156 =( GEOMETRIC_REPRESENTATION_CONTEXT ( 3 ) GLOBAL_UNCERTAINTY_ASSIGNED_CONTEXT ( ( #188 ) ) GLOBAL_UNIT_ASSIGNED_CONTEXT ( ( #133, #119, #27 ) ) REPRESENTATION_CONTEXT ( 'NONE', 'WORKASPACE' ) );
#157 = DIRECTION ( 'NONE',  ( -0.000000000000000000, -1.000000000000000000, -0.000000000000000000 ) ) ;
#158 = PLANE ( 'NONE',  #80 ) ;
#159 = SHAPE_DEFINITION_REPRESENTATION ( #191, #152 ) ;
#160 = AXIS2_PLACEMENT_3D ( 'NONE', #87, #153, #118 ) ;
#161 = ORIENTED_EDGE ( 'NONE', *, *, #182, .F. ) ;
#162 = APPLICATION_CONTEXT ( 'automotive_design' ) ;
#163 = STYLED_ITEM ( 'NONE', ( #39 ), #152 ) ;
#164 = CARTESIAN_POINT ( 'NONE',  ( 700.0000000000000000, 0.000000000000000000, 400.0000000000000568 ) ) ;
#165 = DIRECTION ( 'NONE',  ( -1.000000000000000000, 0.000000000000000000, 0.000000000000000000 ) ) ;
#166 = LINE ( 'NONE', #65, #127 ) ;
#167 = FILL_AREA_STYLE_COLOUR ( '', #63 ) ;
#168 = DIRECTION ( 'NONE',  ( 0.000000000000000000, 0.000000000000000000, 1.000000000000000000 ) ) ;
#169 = ORIENTED_EDGE ( 'NONE', *, *, #182, .T. ) ;
#170 =( LENGTH_UNIT ( ) NAMED_UNIT ( * ) SI_UNIT ( .MILLI., .METRE. ) );
#171 = EDGE_CURVE ( 'NONE', #180, #77, #192, .T. ) ;
#172 = DIRECTION ( 'NONE',  ( 0.000000000000000000, -0.000000000000000000, -1.000000000000000000 ) ) ;
#173 = LINE ( 'NONE', #49, #131 ) ;
#174 = UNCERTAINTY_MEASURE_WITH_UNIT (LENGTH_MEASURE( 1.000000000000000082E-05 ), #93, 'distance_accuracy_value', 'NONE');
#175 = PRODUCT_DEFINITION ( 'UNKNOWN', '', #18, #195 ) ;
#176 =( GEOMETRIC_REPRESENTATION_CONTEXT ( 3 ) GLOBAL_UNCERTAINTY_ASSIGNED_CONTEXT ( ( #129 ) ) GLOBAL_UNIT_ASSIGNED_CONTEXT ( ( #170, #142, #140 ) ) REPRESENTATION_CONTEXT ( 'NONE', 'WORKASPACE' ) );
#177 = FACE_OUTER_BOUND ( 'NONE', #187, .T. ) ;
#178 = APPLICATION_PROTOCOL_DEFINITION ( 'draft international standard', 'automotive_design', 1998, #162 ) ;
#179 = CARTESIAN_POINT ( 'NONE',  ( -700.0000000000000000, 0.000000000000000000, 399.9999999999999432 ) ) ;
#180 = VERTEX_POINT ( 'NONE', #179 ) ;
#181 = CARTESIAN_POINT ( 'NONE',  ( -700.0000000000000000, 150.0000000000000000, 399.9999999999999432 ) ) ;
#182 = EDGE_CURVE ( 'NONE', #146, #66, #71, .T. ) ;
#183 = CARTESIAN_POINT ( 'NONE',  ( -700.0000000000000000, 0.000000000000000000, 399.9999999999999432 ) ) ;
#184 = SURFACE_STYLE_USAGE ( .BOTH. , #47 ) ;
#185 = ORIENTED_EDGE ( 'NONE', *, *, #116, .T. ) ;
#186 = EDGE_CURVE ( 'NONE', #24, #146, #22, .T. ) ;
#187 = EDGE_LOOP ( 'NONE', ( #10, #94, #30, #3 ) ) ;
#188 = UNCERTAINTY_MEASURE_WITH_UNIT (LENGTH_MEASURE( 1.000000000000000082E-05 ), #133, 'distance_accuracy_value', 'NONE');
#189 = PLANE ( 'NONE',  #124 ) ;
#190 = ORIENTED_EDGE ( 'NONE', *, *, #90, .T. ) ;
#191 = PRODUCT_DEFINITION_SHAPE ( 'NONE', 'NONE',  #175 ) ;
#192 = LINE ( 'NONE', #183, #35 ) ;
#193 = EDGE_LOOP ( 'NONE', ( #132, #134, #161, #147 ) ) ;
#194 = VECTOR ( 'NONE', #75, 1000.000000000000000 ) ;
#195 = PRODUCT_DEFINITION_CONTEXT ( 'detailed design', #162, 'design' ) ;
#196 = LINE ( 'NONE', #143, #108 ) ;
#197 = STYLED_ITEM ( 'NONE', ( #111 ), #5 ) ;
#198 = VERTEX_POINT ( 'NONE', #105 ) ;
#199 = CARTESIAN_POINT ( 'NONE',  ( 700.0000000000000000, 150.0000000000000000, -400.0000000000000000 ) ) ;
#200 = ADVANCED_FACE ( 'NONE', ( #38 ), #29, .F. ) ;
#201 = CARTESIAN_POINT ( 'NONE',  ( -700.0000000000000000, 0.000000000000000000, -400.0000000000001137 ) ) ;
#202 =( NAMED_UNIT ( * ) PLANE_ANGLE_UNIT ( ) SI_UNIT ( $, .RADIAN. ) );
ENDSEC;
END-ISO-10303-21;
