ISO-10303-21;
HEADER;
FILE_DESCRIPTION (( 'STEP AP214' ),
    '1' );
FILE_NAME ('ÆÁÈ.26.10 Êîëüöî îïîðíîå ÊÎ-×Ï.STEP',
    '2021-09-14T05:29:56',
    ( '' ),
    ( '' ),
    'SwSTEP 2.0',
    'SolidWorks 2018',
    '' );
FILE_SCHEMA (( 'AUTOMOTIVE_DESIGN' ));
ENDSEC;

DATA;
#1 = PLANE ( 'NONE',  #23 ) ;
#2 = FACE_OUTER_BOUND ( 'NONE', #128, .T. ) ;
#3 = DIRECTION ( 'NONE',  ( 0.000000000000000000, 0.000000000000000000, -1.000000000000000000 ) ) ;
#4 = ORIENTED_EDGE ( 'NONE', *, *, #76, .F. ) ;
#5 = AXIS2_PLACEMENT_3D ( 'NONE', #30, #239, #75 ) ;
#6 = EDGE_CURVE ( 'NONE', #225, #198, #130, .T. ) ;
#7 = DIRECTION ( 'NONE',  ( -0.000000000000000000, -1.000000000000000000, -0.000000000000000000 ) ) ;
#8 = UNCERTAINTY_MEASURE_WITH_UNIT (LENGTH_MEASURE( 1.000000000000000082E-05 ), #35, 'distance_accuracy_value', 'NONE');
#9 = FACE_OUTER_BOUND ( 'NONE', #29, .T. ) ;
#10 = VERTEX_POINT ( 'NONE', #204 ) ;
#11 = ORIENTED_EDGE ( 'NONE', *, *, #76, .T. ) ;
#12 = CIRCLE ( 'NONE', #108, 310.0000000000000000 ) ;
#13 = ORIENTED_EDGE ( 'NONE', *, *, #101, .F. ) ;
#14 = CARTESIAN_POINT ( 'NONE',  ( 0.000000000000000000, 0.000000000000000000, 0.000000000000000000 ) ) ;
#15 = EDGE_CURVE ( 'NONE', #10, #288, #133, .T. ) ;
#16 = PRESENTATION_STYLE_ASSIGNMENT (( #221 ) ) ;
#17 = VERTEX_POINT ( 'NONE', #64 ) ;
#18 = ORIENTED_EDGE ( 'NONE', *, *, #291, .F. ) ;
#19 = DIRECTION ( 'NONE',  ( 0.000000000000000000, 0.000000000000000000, -1.000000000000000000 ) ) ;
#20 = EDGE_CURVE ( 'NONE', #280, #40, #65, .T. ) ;
#21 = DIRECTION ( 'NONE',  ( -0.000000000000000000, -1.000000000000000000, -0.000000000000000000 ) ) ;
#22 = CARTESIAN_POINT ( 'NONE',  ( 6.245698675651501391E-14, 0.000000000000000000, 510.0000000000000000 ) ) ;
#23 = AXIS2_PLACEMENT_3D ( 'NONE', #31, #50, #192 ) ;
#24 = ORIENTED_EDGE ( 'NONE', *, *, #154, .F. ) ;
#25 = DIRECTION ( 'NONE',  ( 1.352396149325184283E-17, -0.9938837346736190126, 0.1104315260748466587 ) ) ;
#26 = DIRECTION ( 'NONE',  ( -0.000000000000000000, -1.000000000000000000, -0.000000000000000000 ) ) ;
#27 = DIRECTION ( 'NONE',  ( 0.000000000000000000, 0.000000000000000000, -1.000000000000000000 ) ) ;
#28 = AXIS2_PLACEMENT_3D ( 'NONE', #100, #164, #19 ) ;
#29 = EDGE_LOOP ( 'NONE', ( #253, #191 ) ) ;
#30 = CARTESIAN_POINT ( 'NONE',  ( 0.000000000000000000, 140.0000000000000568, 0.000000000000000000 ) ) ;
#31 = CARTESIAN_POINT ( 'NONE',  ( -455.0000000000000000, 45.00000000000000000, 0.000000000000000000 ) ) ;
#32 = LINE ( 'NONE', #145, #136 ) ;
#33 = ADVANCED_FACE ( 'NONE', ( #293 ), #227, .F. ) ;
#34 = AXIS2_PLACEMENT_3D ( 'NONE', #151, #56, #109 ) ;
#35 =( LENGTH_UNIT ( ) NAMED_UNIT ( * ) SI_UNIT ( .MILLI., .METRE. ) );
#36 = ORIENTED_EDGE ( 'NONE', *, *, #47, .T. ) ;
#37 = AXIS2_PLACEMENT_3D ( 'NONE', #68, #21, #234 ) ;
#38 = DIRECTION ( 'NONE',  ( -0.000000000000000000, -1.000000000000000000, -0.000000000000000000 ) ) ;
#39 = STYLED_ITEM ( 'NONE', ( #16 ), #226 ) ;
#40 = VERTEX_POINT ( 'NONE', #22 ) ;
#41 = EDGE_LOOP ( 'NONE', ( #77, #11 ) ) ;
#42 = PRODUCT_RELATED_PRODUCT_CATEGORY ( 'part', '', ( #89 ) ) ;
#43 = DIRECTION ( 'NONE',  ( -0.000000000000000000, -1.000000000000000000, -0.000000000000000000 ) ) ;
#44 = ORIENTED_EDGE ( 'NONE', *, *, #55, .T. ) ;
#45 = DIRECTION ( 'NONE',  ( 0.000000000000000000, -0.9945054529214060191, -0.1046847845180427644 ) ) ;
#46 = SURFACE_STYLE_USAGE ( .BOTH. , #121 ) ;
#47 = EDGE_CURVE ( 'NONE', #40, #280, #223, .T. ) ;
#48 = PRESENTATION_STYLE_ASSIGNMENT (( #46 ) ) ;
#49 = DIRECTION ( 'NONE',  ( 0.000000000000000000, 0.000000000000000000, -1.000000000000000000 ) ) ;
#50 = DIRECTION ( 'NONE',  ( 0.000000000000000000, 1.000000000000000000, 0.000000000000000000 ) ) ;
#51 = CARTESIAN_POINT ( 'NONE',  ( 0.000000000000000000, 0.000000000000000000, 0.000000000000000000 ) ) ;
#52 = AXIS2_PLACEMENT_3D ( 'NONE', #150, #237, #170 ) ;
#53 = ORIENTED_EDGE ( 'NONE', *, *, #154, .T. ) ;
#54 = ADVANCED_FACE ( 'NONE', ( #124 ), #286, .F. ) ;
#55 = EDGE_CURVE ( 'NONE', #249, #17, #117, .T. ) ;
#56 = DIRECTION ( 'NONE',  ( 0.000000000000000000, 0.000000000000000000, 1.000000000000000000 ) ) ;
#57 = FILL_AREA_STYLE ('',( #242 ) ) ;
#58 = SURFACE_SIDE_STYLE ('',( #260 ) ) ;
#59 = ADVANCED_FACE ( 'NONE', ( #2, #177 ), #290, .F. ) ;
#60 =( GEOMETRIC_REPRESENTATION_CONTEXT ( 3 ) GLOBAL_UNCERTAINTY_ASSIGNED_CONTEXT ( ( #284 ) ) GLOBAL_UNIT_ASSIGNED_CONTEXT ( ( #263, #171, #220 ) ) REPRESENTATION_CONTEXT ( 'NONE', 'WORKASPACE' ) );
#61 = ADVANCED_FACE ( 'NONE', ( #105 ), #62, .F. ) ;
#62 = CONICAL_SURFACE ( 'NONE', #262, 460.0000000000000000, 0.1106572211738957451 ) ;
#63 = VERTEX_POINT ( 'NONE', #96 ) ;
#64 = CARTESIAN_POINT ( 'NONE',  ( 0.000000000000000000, 45.00000000000000000, -310.0000000000000000 ) ) ;
#65 = CIRCLE ( 'NONE', #165, 510.0000000000000000 ) ;
#66 = AXIS2_PLACEMENT_3D ( 'NONE', #275, #209, #182 ) ;
#67 = CARTESIAN_POINT ( 'NONE',  ( 3.796405077356795273E-14, 45.00000000000000000, 310.0000000000000000 ) ) ;
#68 = CARTESIAN_POINT ( 'NONE',  ( 0.000000000000000000, 0.000000000000000000, 0.000000000000000000 ) ) ;
#69 = ORIENTED_EDGE ( 'NONE', *, *, #101, .T. ) ;
#70 = ORIENTED_EDGE ( 'NONE', *, *, #47, .F. ) ;
#71 = CARTESIAN_POINT ( 'NONE',  ( -510.0000000000000000, 0.000000000000000000, 0.000000000000000000 ) ) ;
#72 = DIRECTION ( 'NONE',  ( 0.000000000000000000, 0.000000000000000000, -1.000000000000000000 ) ) ;
#73 = CARTESIAN_POINT ( 'NONE',  ( 0.000000000000000000, 45.00000000000000000, 0.000000000000000000 ) ) ;
#74 = ORIENTED_EDGE ( 'NONE', *, *, #20, .F. ) ;
#75 = DIRECTION ( 'NONE',  ( 0.000000000000000000, 0.000000000000000000, -1.000000000000000000 ) ) ;
#76 = EDGE_CURVE ( 'NONE', #10, #249, #180, .T. ) ;
#77 = ORIENTED_EDGE ( 'NONE', *, *, #119, .T. ) ;
#78 = CARTESIAN_POINT ( 'NONE',  ( 5.602759106099139970E-14, 45.00000000000000000, 455.0000000000000000 ) ) ;
#79 = ORIENTED_EDGE ( 'NONE', *, *, #175, .F. ) ;
#80 = CARTESIAN_POINT ( 'NONE',  ( 5.633375276077824388E-14, 0.000000000000000000, 460.0000000000000000 ) ) ;
#81 = ADVANCED_FACE ( 'NONE', ( #176 ), #86, .T. ) ;
#82 = ORIENTED_EDGE ( 'NONE', *, *, #119, .F. ) ;
#83 = AXIS2_PLACEMENT_3D ( 'NONE', #51, #26, #187 ) ;
#84 = PRODUCT_CONTEXT ( 'NONE', #152, 'mechanical' ) ;
#85 = EDGE_CURVE ( 'NONE', #63, #199, #112, .T. ) ;
#86 = CYLINDRICAL_SURFACE ( 'NONE', #37, 510.0000000000000000 ) ;
#87 = ORIENTED_EDGE ( 'NONE', *, *, #85, .F. ) ;
#88 = AXIS2_PLACEMENT_3D ( 'NONE', #256, #43, #72 ) ;
#89 = PRODUCT ( 'ÆÁÈ.26.10 Êîëüöî îïîðíîå ÊÎ-×Ï', 'ÆÁÈ.26.10 Êîëüöî îïîðíîå ÊÎ-×Ï', '', ( #84 ) ) ;
#90 = LINE ( 'NONE', #279, #278 ) ;
#91 = EDGE_LOOP ( 'NONE', ( #270, #82, #44, #236 ) ) ;
#92 = UNCERTAINTY_MEASURE_WITH_UNIT (LENGTH_MEASURE( 1.000000000000000082E-05 ), #140, 'distance_accuracy_value', 'NONE');
#93 = FACE_BOUND ( 'NONE', #113, .T. ) ;
#94 = EDGE_LOOP ( 'NONE', ( #138, #285, #144, #207 ) ) ;
#95 =( GEOMETRIC_REPRESENTATION_CONTEXT ( 3 ) GLOBAL_UNCERTAINTY_ASSIGNED_CONTEXT ( ( #8 ) ) GLOBAL_UNIT_ASSIGNED_CONTEXT ( ( #35, #247, #194 ) ) REPRESENTATION_CONTEXT ( 'NONE', 'WORKASPACE' ) );
#96 = CARTESIAN_POINT ( 'NONE',  ( 5.633375276077824388E-14, 0.000000000000000000, 460.0000000000000000 ) ) ;
#97 = DIRECTION ( 'NONE',  ( 0.000000000000000000, 0.000000000000000000, -1.000000000000000000 ) ) ;
#98 = MANIFOLD_SOLID_BREP ( 'Ïîâåðíóòü1', #268 ) ;
#99 = DIRECTION ( 'NONE',  ( 0.000000000000000000, 0.000000000000000000, -1.000000000000000000 ) ) ;
#100 = CARTESIAN_POINT ( 'NONE',  ( 0.000000000000000000, 45.00000000000000000, 0.000000000000000000 ) ) ;
#101 = EDGE_CURVE ( 'NONE', #288, #17, #153, .T. ) ;
#102 = CARTESIAN_POINT ( 'NONE',  ( 0.000000000000000000, 0.000000000000000000, 0.000000000000000000 ) ) ;
#103 = AXIS2_PLACEMENT_3D ( 'NONE', #215, #107, #125 ) ;
#104 = CIRCLE ( 'NONE', #52, 455.0000000000000000 ) ;
#105 = FACE_OUTER_BOUND ( 'NONE', #158, .T. ) ;
#106 = ORIENTED_EDGE ( 'NONE', *, *, #200, .T. ) ;
#107 = DIRECTION ( 'NONE',  ( -0.000000000000000000, -1.000000000000000000, -0.000000000000000000 ) ) ;
#108 = AXIS2_PLACEMENT_3D ( 'NONE', #148, #218, #27 ) ;
#109 = DIRECTION ( 'NONE',  ( 1.000000000000000000, 0.000000000000000000, 0.000000000000000000 ) ) ;
#110 = CONICAL_SURFACE ( 'NONE', #283, 310.0000000000000000, 0.1048769387302339179 ) ;
#111 = ADVANCED_FACE ( 'NONE', ( #93, #231 ), #120, .F. ) ;
#112 = CIRCLE ( 'NONE', #131, 460.0000000000000000 ) ;
#113 = EDGE_LOOP ( 'NONE', ( #18, #87 ) ) ;
#114 = AXIS2_PLACEMENT_3D ( 'NONE', #229, #254, #233 ) ;
#115 = ORIENTED_EDGE ( 'NONE', *, *, #116, .F. ) ;
#116 = EDGE_CURVE ( 'NONE', #246, #40, #32, .T. ) ;
#117 = LINE ( 'NONE', #179, #166 ) ;
#118 = PRODUCT_DEFINITION_SHAPE ( 'NONE', 'NONE',  #264 ) ;
#119 = EDGE_CURVE ( 'NONE', #249, #10, #245, .T. ) ;
#120 = PLANE ( 'NONE',  #134 ) ;
#121 = SURFACE_SIDE_STYLE ('',( #206 ) ) ;
#122 = VERTEX_POINT ( 'NONE', #189 ) ;
#123 = CIRCLE ( 'NONE', #230, 460.0000000000000000 ) ;
#124 = FACE_OUTER_BOUND ( 'NONE', #266, .T. ) ;
#125 = DIRECTION ( 'NONE',  ( 0.000000000000000000, 0.000000000000000000, -1.000000000000000000 ) ) ;
#126 = PRODUCT_DEFINITION_FORMATION_WITH_SPECIFIED_SOURCE ( 'ANY', '', #89, .NOT_KNOWN. ) ;
#127 = CARTESIAN_POINT ( 'NONE',  ( 0.000000000000000000, 0.000000000000000000, -510.0000000000000000 ) ) ;
#128 = EDGE_LOOP ( 'NONE', ( #79, #156 ) ) ;
#129 = DIRECTION ( 'NONE',  ( -0.000000000000000000, -1.000000000000000000, -0.000000000000000000 ) ) ;
#130 = CIRCLE ( 'NONE', #174, 455.0000000000000000 ) ;
#131 = AXIS2_PLACEMENT_3D ( 'NONE', #183, #162, #97 ) ;
#132 = CYLINDRICAL_SURFACE ( 'NONE', #83, 510.0000000000000000 ) ;
#133 = LINE ( 'NONE', #67, #173 ) ;
#134 = AXIS2_PLACEMENT_3D ( 'NONE', #71, #141, #160 ) ;
#135 = ORIENTED_EDGE ( 'NONE', *, *, #175, .T. ) ;
#136 = VECTOR ( 'NONE', #139, 1000.000000000000000 ) ;
#137 = ORIENTED_EDGE ( 'NONE', *, *, #85, .T. ) ;
#138 = ORIENTED_EDGE ( 'NONE', *, *, #200, .F. ) ;
#139 = DIRECTION ( 'NONE',  ( -0.000000000000000000, -1.000000000000000000, -0.000000000000000000 ) ) ;
#140 =( LENGTH_UNIT ( ) NAMED_UNIT ( * ) SI_UNIT ( .MILLI., .METRE. ) );
#141 = DIRECTION ( 'NONE',  ( 0.000000000000000000, 1.000000000000000000, 0.000000000000000000 ) ) ;
#142 = FILL_AREA_STYLE_COLOUR ( '', #241 ) ;
#143 = SHAPE_DEFINITION_REPRESENTATION ( #118, #226 ) ;
#144 = ORIENTED_EDGE ( 'NONE', *, *, #163, .T. ) ;
#145 = CARTESIAN_POINT ( 'NONE',  ( 6.245698675651501391E-14, 0.000000000000000000, 510.0000000000000000 ) ) ;
#146 = DIRECTION ( 'NONE',  ( 0.000000000000000000, -0.9938837346736190126, -0.1104315260748466587 ) ) ;
#147 =( GEOMETRIC_REPRESENTATION_CONTEXT ( 3 ) GLOBAL_UNCERTAINTY_ASSIGNED_CONTEXT ( ( #92 ) ) GLOBAL_UNIT_ASSIGNED_CONTEXT ( ( #140, #211, #274 ) ) REPRESENTATION_CONTEXT ( 'NONE', 'WORKASPACE' ) );
#148 = CARTESIAN_POINT ( 'NONE',  ( 0.000000000000000000, 45.00000000000000000, 0.000000000000000000 ) ) ;
#149 = ORIENTED_EDGE ( 'NONE', *, *, #217, .F. ) ;
#150 = CARTESIAN_POINT ( 'NONE',  ( 0.000000000000000000, 45.00000000000000000, 0.000000000000000000 ) ) ;
#151 = CARTESIAN_POINT ( 'NONE',  ( 0.000000000000000000, 0.000000000000000000, 0.000000000000000000 ) ) ;
#152 = APPLICATION_CONTEXT ( 'automotive_design' ) ;
#153 = CIRCLE ( 'NONE', #188, 310.0000000000000000 ) ;
#154 = EDGE_CURVE ( 'NONE', #122, #280, #155, .T. ) ;
#155 = LINE ( 'NONE', #294, #267 ) ;
#156 = ORIENTED_EDGE ( 'NONE', *, *, #243, .F. ) ;
#157 = AXIS2_PLACEMENT_3D ( 'NONE', #14, #178, #273 ) ;
#158 = EDGE_LOOP ( 'NONE', ( #161, #106, #137, #248 ) ) ;
#159 = EDGE_LOOP ( 'NONE', ( #115, #261, #53, #70 ) ) ;
#160 = DIRECTION ( 'NONE',  ( 0.000000000000000000, -0.000000000000000000, 1.000000000000000000 ) ) ;
#161 = ORIENTED_EDGE ( 'NONE', *, *, #6, .F. ) ;
#162 = DIRECTION ( 'NONE',  ( -0.000000000000000000, -1.000000000000000000, -0.000000000000000000 ) ) ;
#163 = EDGE_CURVE ( 'NONE', #198, #199, #90, .T. ) ;
#164 = DIRECTION ( 'NONE',  ( -0.000000000000000000, -1.000000000000000000, -0.000000000000000000 ) ) ;
#165 = AXIS2_PLACEMENT_3D ( 'NONE', #208, #289, #99 ) ;
#166 = VECTOR ( 'NONE', #45, 1000.000000000000227 ) ;
#167 = EDGE_LOOP ( 'NONE', ( #149, #13 ) ) ;
#168 = CARTESIAN_POINT ( 'NONE',  ( 0.000000000000000000, 45.00000000000000000, -455.0000000000000000 ) ) ;
#169 = CARTESIAN_POINT ( 'NONE',  ( 6.245698675651501391E-14, 140.0000000000000000, 510.0000000000000000 ) ) ;
#170 = DIRECTION ( 'NONE',  ( 0.000000000000000000, 0.000000000000000000, -1.000000000000000000 ) ) ;
#171 =( NAMED_UNIT ( * ) PLANE_ANGLE_UNIT ( ) SI_UNIT ( $, .RADIAN. ) );
#172 = APPLICATION_PROTOCOL_DEFINITION ( 'draft international standard', 'automotive_design', 1998, #152 ) ;
#173 = VECTOR ( 'NONE', #228, 1000.000000000000227 ) ;
#174 = AXIS2_PLACEMENT_3D ( 'NONE', #271, #38, #201 ) ;
#175 = EDGE_CURVE ( 'NONE', #122, #246, #235, .T. ) ;
#176 = FACE_OUTER_BOUND ( 'NONE', #219, .T. ) ;
#177 = FACE_BOUND ( 'NONE', #41, .T. ) ;
#178 = DIRECTION ( 'NONE',  ( -0.000000000000000000, -1.000000000000000000, -0.000000000000000000 ) ) ;
#179 = CARTESIAN_POINT ( 'NONE',  ( 0.000000000000000000, 45.00000000000000000, -310.0000000000000000 ) ) ;
#180 = CIRCLE ( 'NONE', #66, 300.0000000000000000 ) ;
#181 = CARTESIAN_POINT ( 'NONE',  ( 0.000000000000000000, 0.000000000000000000, 0.000000000000000000 ) ) ;
#182 = DIRECTION ( 'NONE',  ( 0.000000000000000000, 0.000000000000000000, -1.000000000000000000 ) ) ;
#183 = CARTESIAN_POINT ( 'NONE',  ( 0.000000000000000000, 0.000000000000000000, 0.000000000000000000 ) ) ;
#184 = VECTOR ( 'NONE', #25, 999.9999999999998863 ) ;
#185 = ORIENTED_EDGE ( 'NONE', *, *, #20, .T. ) ;
#186 = CARTESIAN_POINT ( 'NONE',  ( 0.000000000000000000, 45.00000000000000000, 0.000000000000000000 ) ) ;
#187 = DIRECTION ( 'NONE',  ( 0.000000000000000000, 0.000000000000000000, -1.000000000000000000 ) ) ;
#188 = AXIS2_PLACEMENT_3D ( 'NONE', #73, #272, #276 ) ;
#189 = CARTESIAN_POINT ( 'NONE',  ( 0.000000000000000000, 140.0000000000000000, -510.0000000000000000 ) ) ;
#190 = CARTESIAN_POINT ( 'NONE',  ( 0.000000000000000000, 140.0000000000000000, 0.000000000000000000 ) ) ;
#191 = ORIENTED_EDGE ( 'NONE', *, *, #6, .T. ) ;
#192 = DIRECTION ( 'NONE',  ( 0.000000000000000000, -0.000000000000000000, 1.000000000000000000 ) ) ;
#193 = ADVANCED_FACE ( 'NONE', ( #214 ), #110, .F. ) ;
#194 =( NAMED_UNIT ( * ) SI_UNIT ( $, .STERADIAN. ) SOLID_ANGLE_UNIT ( ) );
#195 = STYLED_ITEM ( 'NONE', ( #48 ), #98 ) ;
#196 = ORIENTED_EDGE ( 'NONE', *, *, #15, .T. ) ;
#197 = APPLICATION_CONTEXT ( 'automotive_design' ) ;
#198 = VERTEX_POINT ( 'NONE', #168 ) ;
#199 = VERTEX_POINT ( 'NONE', #259 ) ;
#200 = EDGE_CURVE ( 'NONE', #225, #63, #252, .T. ) ;
#201 = DIRECTION ( 'NONE',  ( 0.000000000000000000, 0.000000000000000000, -1.000000000000000000 ) ) ;
#202 = ORIENTED_EDGE ( 'NONE', *, *, #55, .F. ) ;
#203 = PRESENTATION_LAYER_ASSIGNMENT (  '', '', ( #39 ) ) ;
#204 = CARTESIAN_POINT ( 'NONE',  ( 3.735172737399427698E-14, 140.0000000000000568, 300.0000000000000000 ) ) ;
#205 = CIRCLE ( 'NONE', #292, 510.0000000000000000 ) ;
#206 = SURFACE_STYLE_FILL_AREA ( #255 ) ;
#207 = ORIENTED_EDGE ( 'NONE', *, *, #291, .T. ) ;
#208 = CARTESIAN_POINT ( 'NONE',  ( 0.000000000000000000, 0.000000000000000000, 0.000000000000000000 ) ) ;
#209 = DIRECTION ( 'NONE',  ( -0.000000000000000000, -1.000000000000000000, -0.000000000000000000 ) ) ;
#210 = FACE_OUTER_BOUND ( 'NONE', #159, .T. ) ;
#211 =( NAMED_UNIT ( * ) PLANE_ANGLE_UNIT ( ) SI_UNIT ( $, .RADIAN. ) );
#212 = MECHANICAL_DESIGN_GEOMETRIC_PRESENTATION_REPRESENTATION (  '', ( #39 ), #60 ) ;
#213 = DIRECTION ( 'NONE',  ( -0.000000000000000000, -1.000000000000000000, -0.000000000000000000 ) ) ;
#214 = FACE_OUTER_BOUND ( 'NONE', #91, .T. ) ;
#215 = CARTESIAN_POINT ( 'NONE',  ( 0.000000000000000000, 140.0000000000000000, 0.000000000000000000 ) ) ;
#216 = CARTESIAN_POINT ( 'NONE',  ( 0.000000000000000000, 140.0000000000000568, -300.0000000000000000 ) ) ;
#217 = EDGE_CURVE ( 'NONE', #17, #288, #12, .T. ) ;
#218 = DIRECTION ( 'NONE',  ( -0.000000000000000000, -1.000000000000000000, -0.000000000000000000 ) ) ;
#219 = EDGE_LOOP ( 'NONE', ( #135, #224, #74, #24 ) ) ;
#220 =( NAMED_UNIT ( * ) SI_UNIT ( $, .STERADIAN. ) SOLID_ANGLE_UNIT ( ) );
#221 = SURFACE_STYLE_USAGE ( .BOTH. , #58 ) ;
#222 = COLOUR_RGB ( '',1.000000000000000000, 1.000000000000000000, 1.000000000000000000 ) ;
#223 = CIRCLE ( 'NONE', #88, 510.0000000000000000 ) ;
#224 = ORIENTED_EDGE ( 'NONE', *, *, #116, .T. ) ;
#225 = VERTEX_POINT ( 'NONE', #78 ) ;
#226 = ADVANCED_BREP_SHAPE_REPRESENTATION ( '¦+L.26.10 ¦þû¹¡þ þÿþ¨ýþõ ¦+-+¦', ( #98, #34 ), #95 ) ;
#227 = CONICAL_SURFACE ( 'NONE', #157, 460.0000000000000000, 0.1106572211738957451 ) ;
#228 = DIRECTION ( 'NONE',  ( 1.282018862794514761E-17, -0.9945054529214060191, 0.1046847845180427644 ) ) ;
#229 = CARTESIAN_POINT ( 'NONE',  ( -300.0000000000000000, 140.0000000000000284, 0.000000000000000000 ) ) ;
#230 = AXIS2_PLACEMENT_3D ( 'NONE', #102, #7, #281 ) ;
#231 = FACE_OUTER_BOUND ( 'NONE', #250, .T. ) ;
#232 = DIRECTION ( 'NONE',  ( 0.000000000000000000, 0.000000000000000000, -1.000000000000000000 ) ) ;
#233 = DIRECTION ( 'NONE',  ( 0.000000000000000000, 0.000000000000000000, -1.000000000000000000 ) ) ;
#234 = DIRECTION ( 'NONE',  ( 0.000000000000000000, 0.000000000000000000, -1.000000000000000000 ) ) ;
#235 = CIRCLE ( 'NONE', #103, 510.0000000000000000 ) ;
#236 = ORIENTED_EDGE ( 'NONE', *, *, #217, .T. ) ;
#237 = DIRECTION ( 'NONE',  ( -0.000000000000000000, -1.000000000000000000, -0.000000000000000000 ) ) ;
#238 = MECHANICAL_DESIGN_GEOMETRIC_PRESENTATION_REPRESENTATION (  '', ( #195 ), #147 ) ;
#239 = DIRECTION ( 'NONE',  ( -0.000000000000000000, -1.000000000000000000, -0.000000000000000000 ) ) ;
#240 = CARTESIAN_POINT ( 'NONE',  ( 3.796405077356795273E-14, 45.00000000000000000, 310.0000000000000000 ) ) ;
#241 = COLOUR_RGB ( '',1.000000000000000000, 1.000000000000000000, 1.000000000000000000 ) ;
#242 = FILL_AREA_STYLE_COLOUR ( '', #222 ) ;
#243 = EDGE_CURVE ( 'NONE', #246, #122, #205, .T. ) ;
#244 = APPLICATION_PROTOCOL_DEFINITION ( 'draft international standard', 'automotive_design', 1998, #197 ) ;
#245 = CIRCLE ( 'NONE', #5, 300.0000000000000000 ) ;
#246 = VERTEX_POINT ( 'NONE', #169 ) ;
#247 =( NAMED_UNIT ( * ) PLANE_ANGLE_UNIT ( ) SI_UNIT ( $, .RADIAN. ) );
#248 = ORIENTED_EDGE ( 'NONE', *, *, #163, .F. ) ;
#249 = VERTEX_POINT ( 'NONE', #216 ) ;
#250 = EDGE_LOOP ( 'NONE', ( #185, #36 ) ) ;
#251 = PRESENTATION_LAYER_ASSIGNMENT (  '', '', ( #195 ) ) ;
#252 = LINE ( 'NONE', #80, #184 ) ;
#253 = ORIENTED_EDGE ( 'NONE', *, *, #269, .T. ) ;
#254 = DIRECTION ( 'NONE',  ( 0.000000000000000000, -1.000000000000000000, -0.000000000000000000 ) ) ;
#255 = FILL_AREA_STYLE ('',( #142 ) ) ;
#256 = CARTESIAN_POINT ( 'NONE',  ( 0.000000000000000000, 0.000000000000000000, 0.000000000000000000 ) ) ;
#257 = FACE_BOUND ( 'NONE', #167, .T. ) ;
#258 = PRODUCT_DEFINITION_CONTEXT ( 'detailed design', #197, 'design' ) ;
#259 = CARTESIAN_POINT ( 'NONE',  ( 0.000000000000000000, 0.000000000000000000, -460.0000000000000000 ) ) ;
#260 = SURFACE_STYLE_FILL_AREA ( #57 ) ;
#261 = ORIENTED_EDGE ( 'NONE', *, *, #243, .T. ) ;
#262 = AXIS2_PLACEMENT_3D ( 'NONE', #181, #287, #232 ) ;
#263 =( LENGTH_UNIT ( ) NAMED_UNIT ( * ) SI_UNIT ( .MILLI., .METRE. ) );
#264 = PRODUCT_DEFINITION ( 'UNKNOWN', '', #126, #258 ) ;
#265 = ADVANCED_FACE ( 'NONE', ( #210 ), #132, .T. ) ;
#266 = EDGE_LOOP ( 'NONE', ( #4, #196, #69, #202 ) ) ;
#267 = VECTOR ( 'NONE', #277, 1000.000000000000000 ) ;
#268 = CLOSED_SHELL ( 'NONE', ( #54, #61, #81, #265, #111, #33, #282, #193, #59 ) ) ;
#269 = EDGE_CURVE ( 'NONE', #198, #225, #104, .T. ) ;
#270 = ORIENTED_EDGE ( 'NONE', *, *, #15, .F. ) ;
#271 = CARTESIAN_POINT ( 'NONE',  ( 0.000000000000000000, 45.00000000000000000, 0.000000000000000000 ) ) ;
#272 = DIRECTION ( 'NONE',  ( -0.000000000000000000, -1.000000000000000000, -0.000000000000000000 ) ) ;
#273 = DIRECTION ( 'NONE',  ( 0.000000000000000000, 0.000000000000000000, -1.000000000000000000 ) ) ;
#274 =( NAMED_UNIT ( * ) SI_UNIT ( $, .STERADIAN. ) SOLID_ANGLE_UNIT ( ) );
#275 = CARTESIAN_POINT ( 'NONE',  ( 0.000000000000000000, 140.0000000000000568, 0.000000000000000000 ) ) ;
#276 = DIRECTION ( 'NONE',  ( 0.000000000000000000, 0.000000000000000000, -1.000000000000000000 ) ) ;
#277 = DIRECTION ( 'NONE',  ( -0.000000000000000000, -1.000000000000000000, -0.000000000000000000 ) ) ;
#278 = VECTOR ( 'NONE', #146, 999.9999999999998863 ) ;
#279 = CARTESIAN_POINT ( 'NONE',  ( 0.000000000000000000, 0.000000000000000000, -460.0000000000000000 ) ) ;
#280 = VERTEX_POINT ( 'NONE', #127 ) ;
#281 = DIRECTION ( 'NONE',  ( 0.000000000000000000, 0.000000000000000000, -1.000000000000000000 ) ) ;
#282 = ADVANCED_FACE ( 'NONE', ( #257, #9 ), #1, .F. ) ;
#283 = AXIS2_PLACEMENT_3D ( 'NONE', #186, #213, #3 ) ;
#284 = UNCERTAINTY_MEASURE_WITH_UNIT (LENGTH_MEASURE( 1.000000000000000082E-05 ), #263, 'distance_accuracy_value', 'NONE');
#285 = ORIENTED_EDGE ( 'NONE', *, *, #269, .F. ) ;
#286 = CONICAL_SURFACE ( 'NONE', #28, 310.0000000000000000, 0.1048769387302339179 ) ;
#287 = DIRECTION ( 'NONE',  ( -0.000000000000000000, -1.000000000000000000, -0.000000000000000000 ) ) ;
#288 = VERTEX_POINT ( 'NONE', #240 ) ;
#289 = DIRECTION ( 'NONE',  ( -0.000000000000000000, -1.000000000000000000, -0.000000000000000000 ) ) ;
#290 = PLANE ( 'NONE',  #114 ) ;
#291 = EDGE_CURVE ( 'NONE', #199, #63, #123, .T. ) ;
#292 = AXIS2_PLACEMENT_3D ( 'NONE', #190, #129, #49 ) ;
#293 = FACE_OUTER_BOUND ( 'NONE', #94, .T. ) ;
#294 = CARTESIAN_POINT ( 'NONE',  ( 0.000000000000000000, 0.000000000000000000, -510.0000000000000000 ) ) ;
ENDSEC;
END-ISO-10303-21;
