ISO-10303-21;
HEADER;
FILE_DESCRIPTION (( 'STEP AP214' ),
    '1' );
FILE_NAME ('Ïëèòà äëÿ ÊÊÑð-1-10(80).STEP',
    '2020-05-21T11:31:05',
    ( '' ),
    ( '' ),
    'SwSTEP 2.0',
    'SolidWorks 2018',
    '' );
FILE_SCHEMA (( 'AUTOMOTIVE_DESIGN' ));
ENDSEC;

DATA;
#1 = DIRECTION ( 'NONE',  ( 4.163336342344337027E-15, 1.000000000000000000, -0.0000000000000000000 ) ) ;
#2 = EDGE_LOOP ( 'NONE', ( #372, #369, #367, #370 ) ) ;
#3 = ORIENTED_EDGE ( 'NONE', *, *, #375, .T. ) ;
#4 = ORIENTED_EDGE ( 'NONE', *, *, #201, .F. ) ;
#5 = EDGE_CURVE ( 'NONE', #297, #48, #316, .T. ) ;
#6 = UNCERTAINTY_MEASURE_WITH_UNIT (LENGTH_MEASURE( 1.000000000000000082E-05 ), #387, 'distance_accuracy_value', 'NONE');
#7 = PRODUCT_RELATED_PRODUCT_CATEGORY ( 'part', '', ( #32 ) ) ;
#8 = PRODUCT_DEFINITION_FORMATION_WITH_SPECIFIED_SOURCE ( 'ANY', '', #32, .NOT_KNOWN. ) ;
#9 = UNCERTAINTY_MEASURE_WITH_UNIT (LENGTH_MEASURE( 1.000000000000000082E-05 ), #203, 'distance_accuracy_value', 'NONE');
#10 = PRODUCT_DEFINITION ( 'UNKNOWN', '', #8, #91 ) ;
#11 = AXIS2_PLACEMENT_3D ( 'NONE', #376, #406, #409 ) ;
#12 =( GEOMETRIC_REPRESENTATION_CONTEXT ( 3 ) GLOBAL_UNCERTAINTY_ASSIGNED_CONTEXT ( ( #257 ) ) GLOBAL_UNIT_ASSIGNED_CONTEXT ( ( #402, #403, #404 ) ) REPRESENTATION_CONTEXT ( 'NONE', 'WORKASPACE' ) );
#13 = MECHANICAL_DESIGN_GEOMETRIC_PRESENTATION_REPRESENTATION (  '', ( #16 ), #12 ) ;
#14 = PRESENTATION_LAYER_ASSIGNMENT (  '', '', ( #16 ) ) ;
#15 = FACE_OUTER_BOUND ( 'NONE', #122, .T. ) ;
#16 = STYLED_ITEM ( 'NONE', ( #414 ), #417 ) ;
#17 =( GEOMETRIC_REPRESENTATION_CONTEXT ( 3 ) GLOBAL_UNCERTAINTY_ASSIGNED_CONTEXT ( ( #6 ) ) GLOBAL_UNIT_ASSIGNED_CONTEXT ( ( #387, #388, #389 ) ) REPRESENTATION_CONTEXT ( 'NONE', 'WORKASPACE' ) );
#18 = AXIS2_PLACEMENT_3D ( 'NONE', #379, #382, #385 ) ;
#19 = AXIS2_PLACEMENT_3D ( 'NONE', #313, #39, #130 ) ;
#20 = AXIS2_PLACEMENT_3D ( 'NONE', #332, #333, #334 ) ;
#21 = EDGE_CURVE ( 'NONE', #115, #335, #88, .T. ) ;
#22 = EDGE_CURVE ( 'NONE', #248, #126, #317, .T. ) ;
#23 = VERTEX_POINT ( 'NONE', #245 ) ;
#24 = DIRECTION ( 'NONE',  ( -1.000000000000000000, 4.163336342344333082E-15, 0.0000000000000000000 ) ) ;
#25 = AXIS2_PLACEMENT_3D ( 'NONE', #300, #310, #311 ) ;
#26 = AXIS2_PLACEMENT_3D ( 'NONE', #312, #304, #308 ) ;
#27 = AXIS2_PLACEMENT_3D ( 'NONE', #293, #301, #302 ) ;
#28 = SHAPE_DEFINITION_REPRESENTATION ( #413, #417 ) ;
#29 = DIRECTION ( 'NONE',  ( 0.0000000000000000000, -1.000000000000000000, 0.0000000000000000000 ) ) ;
#30 = VECTOR ( 'NONE', #215, 999.9999999999998863 ) ;
#31 = AXIS2_PLACEMENT_3D ( 'NONE', #274, #294, #295 ) ;
#32 = PRODUCT ( 'Ïëèòà äëÿ ÊÊÑð-1-10(80)', 'Ïëèòà äëÿ ÊÊÑð-1-10(80)', '', ( #411 ) ) ;
#33 = EDGE_CURVE ( 'NONE', #48, #86, #287, .T. ) ;
#34 = EDGE_CURVE ( 'NONE', #381, #297, #307, .T. ) ;
#35 = SURFACE_STYLE_FILL_AREA ( #398 ) ;
#36 = COLOUR_RGB ( '',1.000000000000000000, 1.000000000000000000, 1.000000000000000000 ) ;
#37 = AXIS2_PLACEMENT_3D ( 'NONE', #267, #277, #279 ) ;
#38 = APPLICATION_PROTOCOL_DEFINITION ( 'draft international standard', 'automotive_design', 1998, #325 ) ;
#39 = DIRECTION ( 'NONE',  ( 0.0000000000000000000, 0.0000000000000000000, -1.000000000000000000 ) ) ;
#40 = VECTOR ( 'NONE', #374, 1000.000000000000000 ) ;
#41 = CARTESIAN_POINT ( 'NONE',  ( -674.9999999999996589, 15.00000000000000000, 515.0000000000000000 ) ) ;
#42 = CARTESIAN_POINT ( 'NONE',  ( -599.9999999999996589, 0.0000000000000000000, -440.0000000000000000 ) ) ;
#43 = AXIS2_PLACEMENT_3D ( 'NONE', #259, #268, #272 ) ;
#44 = CARTESIAN_POINT ( 'NONE',  ( -674.9999999999996589, 80.00000000000000000, -515.0000000000000000 ) ) ;
#45 = CIRCLE ( 'NONE', #18, 315.0000000000000000 ) ;
#46 = LINE ( 'NONE', #373, #40 ) ;
#47 = VECTOR ( 'NONE', #365, 1000.000000000000000 ) ;
#48 = VERTEX_POINT ( 'NONE', #156 ) ;
#49 = VECTOR ( 'NONE', #356, 1000.000000000000000 ) ;
#50 = AXIS2_PLACEMENT_3D ( 'NONE', #255, #249, #262 ) ;
#51 = LINE ( 'NONE', #347, #209 ) ;
#52 = VECTOR ( 'NONE', #354, 1000.000000000000114 ) ;
#53 = LINE ( 'NONE', #360, #49 ) ;
#54 = VECTOR ( 'NONE', #342, 999.9999999999998863 ) ;
#55 = LINE ( 'NONE', #340, #54 ) ;
#56 = LINE ( 'NONE', #363, #47 ) ;
#57 = CARTESIAN_POINT ( 'NONE',  ( -674.9999999999996589, 80.00000000000000000, -515.0000000000000000 ) ) ;
#58 = VECTOR ( 'NONE', #338, 1000.000000000000000 ) ;
#59 = LINE ( 'NONE', #326, #58 ) ;
#60 = LINE ( 'NONE', #352, #52 ) ;
#61 = AXIS2_PLACEMENT_3D ( 'NONE', #244, #29, #251 ) ;
#62 = CONICAL_SURFACE ( 'NONE', #26, 300.0000000000002842, 0.1853479499956913468 ) ;
#63 = VECTOR ( 'NONE', #324, 1000.000000000000000 ) ;
#64 = LINE ( 'NONE', #345, #132 ) ;
#65 = LINE ( 'NONE', #323, #63 ) ;
#66 = CIRCLE ( 'NONE', #20, 300.0000000000002842 ) ;
#67 = AXIS2_PLACEMENT_3D ( 'NONE', #241, #236, #243 ) ;
#68 = FACE_OUTER_BOUND ( 'NONE', #129, .T. ) ;
#69 = FACE_OUTER_BOUND ( 'NONE', #113, .T. ) ;
#70 = FACE_OUTER_BOUND ( 'NONE', #114, .T. ) ;
#71 = FACE_OUTER_BOUND ( 'NONE', #121, .T. ) ;
#72 = DIRECTION ( 'NONE',  ( -0.0000000000000000000, -1.000000000000000000, -0.0000000000000000000 ) ) ;
#73 = LINE ( 'NONE', #285, #151 ) ;
#74 = FACE_OUTER_BOUND ( 'NONE', #117, .T. ) ;
#75 = AXIS2_PLACEMENT_3D ( 'NONE', #228, #238, #240 ) ;
#76 = FACE_OUTER_BOUND ( 'NONE', #104, .T. ) ;
#77 = EDGE_CURVE ( 'NONE', #297, #23, #286, .T. ) ;
#78 = ORIENTED_EDGE ( 'NONE', *, *, #247, .F. ) ;
#79 = ORIENTED_EDGE ( 'NONE', *, *, #77, .F. ) ;
#80 = EDGE_LOOP ( 'NONE', ( #366, #350, #362, #377 ) ) ;
#81 = EDGE_LOOP ( 'NONE', ( #386, #98, #146, #416 ) ) ;
#82 = AXIS2_PLACEMENT_3D ( 'NONE', #196, #221, #224 ) ;
#83 = FACE_OUTER_BOUND ( 'NONE', #81, .T. ) ;
#84 = EDGE_CURVE ( 'NONE', #124, #109, #282, .T. ) ;
#85 = EDGE_LOOP ( 'NONE', ( #78, #337 ) ) ;
#86 = VERTEX_POINT ( 'NONE', #165 ) ;
#87 = VERTEX_POINT ( 'NONE', #167 ) ;
#88 = LINE ( 'NONE', #139, #309 ) ;
#89 = AXIS2_PLACEMENT_3D ( 'NONE', #226, #213, #217 ) ;
#90 = ORIENTED_EDGE ( 'NONE', *, *, #84, .T. ) ;
#91 = PRODUCT_DEFINITION_CONTEXT ( 'detailed design', #325, 'design' ) ;
#92 = LINE ( 'NONE', #207, #107 ) ;
#93 = VERTEX_POINT ( 'NONE', #166 ) ;
#94 = LINE ( 'NONE', #197, #30 ) ;
#95 = LINE ( 'NONE', #210, #118 ) ;
#96 = CARTESIAN_POINT ( 'NONE',  ( 3.330669073875418629E-13, 79.99999999999877787, 0.0000000000000000000 ) ) ;
#97 = ORIENTED_EDGE ( 'NONE', *, *, #143, .F. ) ;
#98 = ORIENTED_EDGE ( 'NONE', *, *, #84, .F. ) ;
#99 = FACE_OUTER_BOUND ( 'NONE', #120, .T. ) ;
#100 = ORIENTED_EDGE ( 'NONE', *, *, #33, .T. ) ;
#101 = ORIENTED_EDGE ( 'NONE', *, *, #412, .F. ) ;
#102 = EDGE_CURVE ( 'NONE', #136, #103, #278, .T. ) ;
#103 = VERTEX_POINT ( 'NONE', #171 ) ;
#104 = EDGE_LOOP ( 'NONE', ( #290, #339, #190, #152 ) ) ;
#105 = ORIENTED_EDGE ( 'NONE', *, *, #5, .T. ) ;
#106 = ORIENTED_EDGE ( 'NONE', *, *, #22, .F. ) ;
#107 = VECTOR ( 'NONE', #208, 1000.000000000000000 ) ;
#108 = EDGE_CURVE ( 'NONE', #335, #110, #273, .T. ) ;
#109 = VERTEX_POINT ( 'NONE', #175 ) ;
#110 = VERTEX_POINT ( 'NONE', #174 ) ;
#111 = ORIENTED_EDGE ( 'NONE', *, *, #138, .F. ) ;
#112 = EDGE_CURVE ( 'NONE', #87, #103, #276, .T. ) ;
#113 = EDGE_LOOP ( 'NONE', ( #100, #291, #79, #105 ) ) ;
#114 = EDGE_LOOP ( 'NONE', ( #319, #260, #292, #90 ) ) ;
#115 = VERTEX_POINT ( 'NONE', #181 ) ;
#116 = LINE ( 'NONE', #212, #185 ) ;
#117 = EDGE_LOOP ( 'NONE', ( #131, #111, #341, #396 ) ) ;
#118 = VECTOR ( 'NONE', #211, 1000.000000000000000 ) ;
#119 =( GEOMETRIC_REPRESENTATION_CONTEXT ( 3 ) GLOBAL_UNCERTAINTY_ASSIGNED_CONTEXT ( ( #9 ) ) GLOBAL_UNIT_ASSIGNED_CONTEXT ( ( #203, #204, #206 ) ) REPRESENTATION_CONTEXT ( 'NONE', 'WORKASPACE' ) );
#120 = EDGE_LOOP ( 'NONE', ( #343, #353, #357, #358 ) ) ;
#121 = EDGE_LOOP ( 'NONE', ( #137, #4, #331, #327 ) ) ;
#122 = EDGE_LOOP ( 'NONE', ( #3, #349, #157, #150 ) ) ;
#123 = CONICAL_SURFACE ( 'NONE', #89, 300.0000000000002842, 0.1853479499956913468 ) ;
#124 = VERTEX_POINT ( 'NONE', #183 ) ;
#125 = EDGE_CURVE ( 'NONE', #23, #124, #330, .T. ) ;
#126 = VERTEX_POINT ( 'NONE', #184 ) ;
#127 = FACE_BOUND ( 'NONE', #85, .T. ) ;
#128 = EDGE_LOOP ( 'NONE', ( #371, #384, #380, #378 ) ) ;
#129 = EDGE_LOOP ( 'NONE', ( #133, #329, #408, #393 ) ) ;
#130 = DIRECTION ( 'NONE',  ( -1.000000000000000000, 0.0000000000000000000, -0.0000000000000000000 ) ) ;
#131 = ORIENTED_EDGE ( 'NONE', *, *, #298, .T. ) ;
#132 = VECTOR ( 'NONE', #348, 1000.000000000000000 ) ;
#133 = ORIENTED_EDGE ( 'NONE', *, *, #247, .T. ) ;
#134 = MECHANICAL_DESIGN_GEOMETRIC_PRESENTATION_REPRESENTATION (  '', ( #401 ), #119 ) ;
#135 = FACE_BOUND ( 'NONE', #239, .T. ) ;
#136 = VERTEX_POINT ( 'NONE', #188 ) ;
#137 = ORIENTED_EDGE ( 'NONE', *, *, #205, .T. ) ;
#138 = EDGE_CURVE ( 'NONE', #103, #261, #270, .T. ) ;
#139 = CARTESIAN_POINT ( 'NONE',  ( 300.0000000000006253, 79.99999999999752731, 0.0000000000000000000 ) ) ;
#140 = EDGE_LOOP ( 'NONE', ( #250, #394, #328, #395 ) ) ;
#141 = ORIENTED_EDGE ( 'NONE', *, *, #407, .F. ) ;
#142 = FACE_OUTER_BOUND ( 'NONE', #128, .T. ) ;
#143 = EDGE_CURVE ( 'NONE', #136, #359, #275, .T. ) ;
#144 = DIRECTION ( 'NONE',  ( 0.1842885350501779207, -0.9828721869343233219, 0.0000000000000000000 ) ) ;
#145 = FACE_OUTER_BOUND ( 'NONE', #155, .T. ) ;
#146 = ORIENTED_EDGE ( 'NONE', *, *, #125, .F. ) ;
#147 = CLOSED_SHELL ( 'NONE', ( #235, #223, #227, #216, #232, #229, #231, #220, #233, #237, #225, #222, #218 ) ) ;
#148 = ORIENTED_EDGE ( 'NONE', *, *, #108, .T. ) ;
#149 = EDGE_CURVE ( 'NONE', #361, #115, #266, .T. ) ;
#150 = ORIENTED_EDGE ( 'NONE', *, *, #22, .T. ) ;
#151 = VECTOR ( 'NONE', #288, 1000.000000000000000 ) ;
#152 = ORIENTED_EDGE ( 'NONE', *, *, #242, .T. ) ;
#153 = DIRECTION ( 'NONE',  ( -0.0000000000000000000, -0.0000000000000000000, 1.000000000000000000 ) ) ;
#154 = CARTESIAN_POINT ( 'NONE',  ( -674.9999999999996589, 80.00000000000000000, 515.0000000000000000 ) ) ;
#155 = EDGE_LOOP ( 'NONE', ( #101, #97, #141, #106 ) ) ;
#156 = CARTESIAN_POINT ( 'NONE',  ( -674.9999999999996589, 15.00000000000000000, -515.0000000000000000 ) ) ;
#157 = ORIENTED_EDGE ( 'NONE', *, *, #205, .F. ) ;
#158 = FACE_BOUND ( 'NONE', #80, .T. ) ;
#159 = DIRECTION ( 'NONE',  ( -1.000000000000000000, -0.0000000000000000000, -0.0000000000000000000 ) ) ;
#160 = CARTESIAN_POINT ( 'NONE',  ( 675.0000000000003411, 80.00000000000000000, 515.0000000000000000 ) ) ;
#161 = DIRECTION ( 'NONE',  ( -0.1622214211307872189, 0.9733285267845711575, 0.1622214211307620169 ) ) ;
#162 = DIRECTION ( 'NONE',  ( -0.0000000000000000000, -0.0000000000000000000, 1.000000000000000000 ) ) ;
#163 = DIRECTION ( 'NONE',  ( -0.0000000000000000000, -1.000000000000000000, -0.0000000000000000000 ) ) ;
#164 = CARTESIAN_POINT ( 'NONE',  ( -599.9999999999996589, 0.0000000000000000000, 440.0000000000000000 ) ) ;
#165 = CARTESIAN_POINT ( 'NONE',  ( -674.9999999999996589, 15.00000000000000000, 515.0000000000000000 ) ) ;
#166 = CARTESIAN_POINT ( 'NONE',  ( 602.5000000000000000, 15.00000000000000000, -442.5000000000000000 ) ) ;
#167 = CARTESIAN_POINT ( 'NONE',  ( -602.5000000000000000, 15.00000000000000000, -442.5000000000000000 ) ) ;
#168 = FACE_OUTER_BOUND ( 'NONE', #2, .T. ) ;
#169 = DIRECTION ( 'NONE',  ( -1.000000000000000000, -0.0000000000000000000, -0.0000000000000000000 ) ) ;
#170 = CARTESIAN_POINT ( 'NONE',  ( -602.5000000000000000, 15.00000000000000000, 442.5000000000000000 ) ) ;
#171 = CARTESIAN_POINT ( 'NONE',  ( -602.5000000000000000, 15.00000000000000000, 442.5000000000000000 ) ) ;
#172 = CARTESIAN_POINT ( 'NONE',  ( -674.9999999999996589, 80.00000000000000000, 515.0000000000000000 ) ) ;
#173 = VECTOR ( 'NONE', #193, 1000.000000000000000 ) ;
#174 = CARTESIAN_POINT ( 'NONE',  ( -315.0000000000000000, -1.387778780781445676E-14, 3.857637417314162216E-14 ) ) ;
#175 = CARTESIAN_POINT ( 'NONE',  ( 675.0000000000003411, 15.00000000000000000, 515.0000000000000000 ) ) ;
#176 = CARTESIAN_POINT ( 'NONE',  ( -5.472722529970769400E-27, -1.318389841742373392E-12, 0.0000000000000000000 ) ) ;
#177 = DIRECTION ( 'NONE',  ( 4.163336342344337027E-15, 1.000000000000000000, -0.0000000000000000000 ) ) ;
#178 = DIRECTION ( 'NONE',  ( -1.000000000000000000, 4.163336342344337027E-15, 0.0000000000000000000 ) ) ;
#179 = DIRECTION ( 'NONE',  ( 1.000000000000000000, 0.0000000000000000000, 0.0000000000000000000 ) ) ;
#180 = COLOUR_RGB ( '',1.000000000000000000, 1.000000000000000000, 1.000000000000000000 ) ;
#181 = CARTESIAN_POINT ( 'NONE',  ( 300.0000000000006253, 79.99999999999752731, 0.0000000000000000000 ) ) ;
#182 = DIRECTION ( 'NONE',  ( -0.0000000000000000000, -0.0000000000000000000, 1.000000000000000000 ) ) ;
#183 = CARTESIAN_POINT ( 'NONE',  ( 675.0000000000003411, 80.00000000000000000, 515.0000000000000000 ) ) ;
#184 = CARTESIAN_POINT ( 'NONE',  ( -599.9999999999996589, 0.0000000000000000000, -440.0000000000000000 ) ) ;
#185 = VECTOR ( 'NONE', #214, 1000.000000000000000 ) ;
#186 = CARTESIAN_POINT ( 'NONE',  ( -602.5000000000000000, 15.00000000000000000, 442.5000000000000000 ) ) ;
#187 = PRESENTATION_LAYER_ASSIGNMENT (  '', '', ( #401 ) ) ;
#188 = CARTESIAN_POINT ( 'NONE',  ( -599.9999999999996589, 0.0000000000000000000, 440.0000000000000000 ) ) ;
#189 = MANIFOLD_SOLID_BREP ( 'Âûðåç-Ïîâåðíóòü1', #147 ) ;
#190 = ORIENTED_EDGE ( 'NONE', *, *, #34, .F. ) ;
#191 = CARTESIAN_POINT ( 'NONE',  ( -599.9999999999996589, 0.0000000000000000000, 440.0000000000000000 ) ) ;
#192 = DIRECTION ( 'NONE',  ( 1.000000000000000000, 0.0000000000000000000, 0.0000000000000000000 ) ) ;
#193 = DIRECTION ( 'NONE',  ( 1.000000000000000000, 0.0000000000000000000, 0.0000000000000000000 ) ) ;
#194 = EDGE_CURVE ( 'NONE', #109, #296, #92, .T. ) ;
#195 = FILL_AREA_STYLE_COLOUR ( '', #180 ) ;
#196 = CARTESIAN_POINT ( 'NONE',  ( -583.7837837837787447, -97.29729729731167254, 0.0000000000000000000 ) ) ;
#197 = CARTESIAN_POINT ( 'NONE',  ( 600.0000000000003411, 0.0000000000000000000, -440.0000000000000000 ) ) ;
#198 = FILL_AREA_STYLE ('',( #195 ) ) ;
#199 = SURFACE_SIDE_STYLE ('',( #265 ) ) ;
#200 = SURFACE_STYLE_USAGE ( .BOTH. , #199 ) ;
#201 = EDGE_CURVE ( 'NONE', #261, #93, #95, .T. ) ;
#202 = EDGE_CURVE ( 'NONE', #86, #109, #116, .T. ) ;
#203 =( LENGTH_UNIT ( ) NAMED_UNIT ( * ) SI_UNIT ( .MILLI., .METRE. ) );
#204 =( NAMED_UNIT ( * ) PLANE_ANGLE_UNIT ( ) SI_UNIT ( $, .RADIAN. ) );
#205 = EDGE_CURVE ( 'NONE', #248, #93, #94, .T. ) ;
#206 =( NAMED_UNIT ( * ) SI_UNIT ( $, .STERADIAN. ) SOLID_ANGLE_UNIT ( ) );
#207 = CARTESIAN_POINT ( 'NONE',  ( 675.0000000000003411, 15.00000000000000000, 515.0000000000000000 ) ) ;
#208 = DIRECTION ( 'NONE',  ( 0.0000000000000000000, 0.0000000000000000000, -1.000000000000000000 ) ) ;
#209 = VECTOR ( 'NONE', #368, 1000.000000000000000 ) ;
#210 = CARTESIAN_POINT ( 'NONE',  ( 602.5000000000000000, 15.00000000000000000, 442.5000000000000000 ) ) ;
#211 = DIRECTION ( 'NONE',  ( 0.0000000000000000000, 0.0000000000000000000, -1.000000000000000000 ) ) ;
#212 = CARTESIAN_POINT ( 'NONE',  ( -674.9999999999996589, 15.00000000000000000, 515.0000000000000000 ) ) ;
#213 = DIRECTION ( 'NONE',  ( -4.163336342344337027E-15, -1.000000000000000000, 0.0000000000000000000 ) ) ;
#214 = DIRECTION ( 'NONE',  ( 1.000000000000000000, 0.0000000000000000000, 0.0000000000000000000 ) ) ;
#215 = DIRECTION ( 'NONE',  ( 0.1622214211307451692, 0.9733285267845781519, -0.1622214211307631826 ) ) ;
#216 = ADVANCED_FACE ( 'NONE', ( #254 ), #219, .F. ) ;
#217 = DIRECTION ( 'NONE',  ( 1.000000000000000000, -4.163336342344333082E-15, 0.0000000000000000000 ) ) ;
#218 = ADVANCED_FACE ( 'NONE', ( #142 ), #123, .F. ) ;
#219 = PLANE ( 'NONE',  #82 ) ;
#220 = ADVANCED_FACE ( 'NONE', ( #76 ), #234, .F. ) ;
#221 = DIRECTION ( 'NONE',  ( 0.9863939238321395298, 0.1643989873053822992, 0.0000000000000000000 ) ) ;
#222 = ADVANCED_FACE ( 'NONE', ( #158, #168 ), #418, .T. ) ;
#223 = ADVANCED_FACE ( 'NONE', ( #135, #145 ), #246, .T. ) ;
#224 = DIRECTION ( 'NONE',  ( -0.1643989873053822992, 0.9863939238321395298, 0.0000000000000000000 ) ) ;
#225 = ADVANCED_FACE ( 'NONE', ( #127, #99 ), #258, .F. ) ;
#226 = CARTESIAN_POINT ( 'NONE',  ( 3.330669073875418629E-13, 79.99999999999877787, 0.0000000000000000000 ) ) ;
#227 = ADVANCED_FACE ( 'NONE', ( #74 ), #256, .F. ) ;
#228 = CARTESIAN_POINT ( 'NONE',  ( -674.9999999999996589, 80.00000000000000000, -515.0000000000000000 ) ) ;
#229 = ADVANCED_FACE ( 'NONE', ( #15 ), #264, .F. ) ;
#230 = EDGE_CURVE ( 'NONE', #23, #86, #73, .T. ) ;
#231 = ADVANCED_FACE ( 'NONE', ( #70 ), #284, .F. ) ;
#232 = ADVANCED_FACE ( 'NONE', ( #71 ), #280, .F. ) ;
#233 = ADVANCED_FACE ( 'NONE', ( #69 ), #299, .F. ) ;
#234 = PLANE ( 'NONE',  #75 ) ;
#235 = ADVANCED_FACE ( 'NONE', ( #68 ), #62, .F. ) ;
#236 = DIRECTION ( 'NONE',  ( 0.0000000000000000000, -1.000000000000000000, 0.0000000000000000000 ) ) ;
#237 = ADVANCED_FACE ( 'NONE', ( #83 ), #318, .F. ) ;
#238 = DIRECTION ( 'NONE',  ( 0.0000000000000000000, 0.0000000000000000000, 1.000000000000000000 ) ) ;
#239 = EDGE_LOOP ( 'NONE', ( #148, #391 ) ) ;
#240 = DIRECTION ( 'NONE',  ( 1.000000000000000000, 0.0000000000000000000, -0.0000000000000000000 ) ) ;
#241 = CARTESIAN_POINT ( 'NONE',  ( 0.0000000000000000000, 15.00000000000000000, 0.0000000000000000000 ) ) ;
#242 = EDGE_CURVE ( 'NONE', #381, #296, #65, .T. ) ;
#243 = DIRECTION ( 'NONE',  ( 0.0000000000000000000, -0.0000000000000000000, -1.000000000000000000 ) ) ;
#244 = CARTESIAN_POINT ( 'NONE',  ( 0.0000000000000000000, 0.0000000000000000000, 0.0000000000000000000 ) ) ;
#245 = CARTESIAN_POINT ( 'NONE',  ( -674.9999999999996589, 80.00000000000000000, 515.0000000000000000 ) ) ;
#246 = PLANE ( 'NONE',  #61 ) ;
#247 = EDGE_CURVE ( 'NONE', #115, #361, #66, .T. ) ;
#248 = VERTEX_POINT ( 'NONE', #320 ) ;
#249 = DIRECTION ( 'NONE',  ( 0.0000000000000000000, -1.000000000000000000, 0.0000000000000000000 ) ) ;
#250 = ORIENTED_EDGE ( 'NONE', *, *, #102, .T. ) ;
#251 = DIRECTION ( 'NONE',  ( 0.0000000000000000000, -0.0000000000000000000, -1.000000000000000000 ) ) ;
#252 = VECTOR ( 'NONE', #179, 1000.000000000000000 ) ;
#253 = EDGE_CURVE ( 'NONE', #93, #87, #59, .T. ) ;
#254 = FACE_OUTER_BOUND ( 'NONE', #140, .T. ) ;
#255 = CARTESIAN_POINT ( 'NONE',  ( 0.0000000000000000000, 80.00000000000000000, 0.0000000000000000000 ) ) ;
#256 = PLANE ( 'NONE',  #43 ) ;
#257 = UNCERTAINTY_MEASURE_WITH_UNIT (LENGTH_MEASURE( 1.000000000000000082E-05 ), #402, 'distance_accuracy_value', 'NONE');
#258 = PLANE ( 'NONE',  #50 ) ;
#259 = CARTESIAN_POINT ( 'NONE',  ( 0.0000000000000000000, -71.35135135135141127, 428.1081081081080697 ) ) ;
#260 = ORIENTED_EDGE ( 'NONE', *, *, #242, .F. ) ;
#261 = VERTEX_POINT ( 'NONE', #322 ) ;
#262 = DIRECTION ( 'NONE',  ( 0.0000000000000000000, -0.0000000000000000000, -1.000000000000000000 ) ) ;
#263 = PRESENTATION_STYLE_ASSIGNMENT (( #200 ) ) ;
#264 = PLANE ( 'NONE',  #37 ) ;
#265 = SURFACE_STYLE_FILL_AREA ( #198 ) ;
#266 = CIRCLE ( 'NONE', #392, 300.0000000000002842 ) ;
#267 = CARTESIAN_POINT ( 'NONE',  ( 0.0000000000000000000, -71.35135135135141127, -428.1081081081080697 ) ) ;
#268 = DIRECTION ( 'NONE',  ( 0.0000000000000000000, 0.1643989873053574580, -0.9863939238321437486 ) ) ;
#269 = VECTOR ( 'NONE', #182, 1000.000000000000000 ) ;
#270 = LINE ( 'NONE', #186, #271 ) ;
#271 = VECTOR ( 'NONE', #192, 1000.000000000000000 ) ;
#272 = DIRECTION ( 'NONE',  ( 0.0000000000000000000, 0.9863939238321436376, 0.1643989873053574302 ) ) ;
#273 = CIRCLE ( 'NONE', #383, 315.0000000000000000 ) ;
#274 = CARTESIAN_POINT ( 'NONE',  ( 675.0000000000003411, 80.00000000000000000, 515.0000000000000000 ) ) ;
#275 = LINE ( 'NONE', #191, #173 ) ;
#276 = LINE ( 'NONE', #170, #269 ) ;
#277 = DIRECTION ( 'NONE',  ( -0.0000000000000000000, 0.1643989873053574580, 0.9863939238321437486 ) ) ;
#278 = LINE ( 'NONE', #164, #289 ) ;
#279 = DIRECTION ( 'NONE',  ( 0.0000000000000000000, -0.9863939238321436376, 0.1643989873053574302 ) ) ;
#280 = PLANE ( 'NONE',  #27 ) ;
#281 = VECTOR ( 'NONE', #162, 1000.000000000000000 ) ;
#282 = LINE ( 'NONE', #160, #303 ) ;
#283 = VECTOR ( 'NONE', #153, 1000.000000000000000 ) ;
#284 = PLANE ( 'NONE',  #31 ) ;
#285 = CARTESIAN_POINT ( 'NONE',  ( -674.9999999999996589, 80.00000000000000000, 515.0000000000000000 ) ) ;
#286 = LINE ( 'NONE', #154, #281 ) ;
#287 = LINE ( 'NONE', #41, #283 ) ;
#288 = DIRECTION ( 'NONE',  ( -0.0000000000000000000, -1.000000000000000000, -0.0000000000000000000 ) ) ;
#289 = VECTOR ( 'NONE', #161, 1000.000000000000114 ) ;
#290 = ORIENTED_EDGE ( 'NONE', *, *, #410, .T. ) ;
#291 = ORIENTED_EDGE ( 'NONE', *, *, #230, .F. ) ;
#292 = ORIENTED_EDGE ( 'NONE', *, *, #306, .F. ) ;
#293 = CARTESIAN_POINT ( 'NONE',  ( 583.7837837837877260, -97.29729729728724408, 0.0000000000000000000 ) ) ;
#294 = DIRECTION ( 'NONE',  ( -1.000000000000000000, 0.0000000000000000000, 0.0000000000000000000 ) ) ;
#295 = DIRECTION ( 'NONE',  ( 0.0000000000000000000, 0.0000000000000000000, 1.000000000000000000 ) ) ;
#296 = VERTEX_POINT ( 'NONE', #321 ) ;
#297 = VERTEX_POINT ( 'NONE', #336 ) ;
#298 = EDGE_CURVE ( 'NONE', #359, #261, #55, .T. ) ;
#299 = PLANE ( 'NONE',  #25 ) ;
#300 = CARTESIAN_POINT ( 'NONE',  ( -674.9999999999996589, 80.00000000000000000, 515.0000000000000000 ) ) ;
#301 = DIRECTION ( 'NONE',  ( -0.9863939238321467462, 0.1643989873053396944, 0.0000000000000000000 ) ) ;
#302 = DIRECTION ( 'NONE',  ( -0.1643989873053396666, -0.9863939238321466352, 0.0000000000000000000 ) ) ;
#303 = VECTOR ( 'NONE', #163, 1000.000000000000000 ) ;
#304 = DIRECTION ( 'NONE',  ( -4.163336342344337027E-15, -1.000000000000000000, 0.0000000000000000000 ) ) ;
#305 = VECTOR ( 'NONE', #169, 1000.000000000000000 ) ;
#306 = EDGE_CURVE ( 'NONE', #124, #381, #64, .T. ) ;
#307 = LINE ( 'NONE', #44, #314 ) ;
#308 = DIRECTION ( 'NONE',  ( 1.000000000000000000, -4.163336342344333082E-15, 0.0000000000000000000 ) ) ;
#309 = VECTOR ( 'NONE', #144, 1000.000000000000000 ) ;
#310 = DIRECTION ( 'NONE',  ( 1.000000000000000000, -0.0000000000000000000, 0.0000000000000000000 ) ) ;
#311 = DIRECTION ( 'NONE',  ( 0.0000000000000000000, 0.0000000000000000000, -1.000000000000000000 ) ) ;
#312 = CARTESIAN_POINT ( 'NONE',  ( 3.330669073875418629E-13, 79.99999999999877787, 0.0000000000000000000 ) ) ;
#313 = CARTESIAN_POINT ( 'NONE',  ( -674.9999999999996589, 80.00000000000000000, 515.0000000000000000 ) ) ;
#314 = VECTOR ( 'NONE', #159, 1000.000000000000000 ) ;
#315 = VECTOR ( 'NONE', #72, 1000.000000000000000 ) ;
#316 = LINE ( 'NONE', #57, #315 ) ;
#317 = LINE ( 'NONE', #42, #305 ) ;
#318 = PLANE ( 'NONE',  #19 ) ;
#319 = ORIENTED_EDGE ( 'NONE', *, *, #194, .T. ) ;
#320 = CARTESIAN_POINT ( 'NONE',  ( 600.0000000000003411, 0.0000000000000000000, -440.0000000000000000 ) ) ;
#321 = CARTESIAN_POINT ( 'NONE',  ( 675.0000000000003411, 15.00000000000000000, -515.0000000000000000 ) ) ;
#322 = CARTESIAN_POINT ( 'NONE',  ( 602.5000000000000000, 15.00000000000000000, 442.5000000000000000 ) ) ;
#323 = CARTESIAN_POINT ( 'NONE',  ( 675.0000000000003411, 80.00000000000000000, -515.0000000000000000 ) ) ;
#324 = DIRECTION ( 'NONE',  ( -0.0000000000000000000, -1.000000000000000000, -0.0000000000000000000 ) ) ;
#325 = APPLICATION_CONTEXT ( 'automotive_design' ) ;
#326 = CARTESIAN_POINT ( 'NONE',  ( -602.5000000000000000, 15.00000000000000000, -442.5000000000000000 ) ) ;
#327 = ORIENTED_EDGE ( 'NONE', *, *, #412, .T. ) ;
#328 = ORIENTED_EDGE ( 'NONE', *, *, #375, .F. ) ;
#329 = ORIENTED_EDGE ( 'NONE', *, *, #405, .T. ) ;
#330 = LINE ( 'NONE', #172, #252 ) ;
#331 = ORIENTED_EDGE ( 'NONE', *, *, #298, .F. ) ;
#332 = CARTESIAN_POINT ( 'NONE',  ( 3.330669073875418629E-13, 79.99999999999877787, 0.0000000000000000000 ) ) ;
#333 = DIRECTION ( 'NONE',  ( 4.163336342344337027E-15, 1.000000000000000000, -0.0000000000000000000 ) ) ;
#334 = DIRECTION ( 'NONE',  ( -1.000000000000000000, 4.163336342344333082E-15, 0.0000000000000000000 ) ) ;
#335 = VERTEX_POINT ( 'NONE', #344 ) ;
#336 = CARTESIAN_POINT ( 'NONE',  ( -674.9999999999996589, 80.00000000000000000, -515.0000000000000000 ) ) ;
#337 = ORIENTED_EDGE ( 'NONE', *, *, #149, .F. ) ;
#338 = DIRECTION ( 'NONE',  ( -1.000000000000000000, -0.0000000000000000000, -0.0000000000000000000 ) ) ;
#339 = ORIENTED_EDGE ( 'NONE', *, *, #5, .F. ) ;
#340 = CARTESIAN_POINT ( 'NONE',  ( 600.0000000000003411, 0.0000000000000000000, 440.0000000000000000 ) ) ;
#341 = ORIENTED_EDGE ( 'NONE', *, *, #102, .F. ) ;
#342 = DIRECTION ( 'NONE',  ( 0.1622214211307451692, 0.9733285267845781519, 0.1622214211307631826 ) ) ;
#343 = ORIENTED_EDGE ( 'NONE', *, *, #306, .T. ) ;
#344 = CARTESIAN_POINT ( 'NONE',  ( 315.0000000000000000, -2.636779683484746784E-12, 0.0000000000000000000 ) ) ;
#345 = CARTESIAN_POINT ( 'NONE',  ( 675.0000000000003411, 80.00000000000000000, 515.0000000000000000 ) ) ;
#346 = CARTESIAN_POINT ( 'NONE',  ( 600.0000000000003411, 0.0000000000000000000, 440.0000000000000000 ) ) ;
#347 = CARTESIAN_POINT ( 'NONE',  ( -674.9999999999996589, 15.00000000000000000, -515.0000000000000000 ) ) ;
#348 = DIRECTION ( 'NONE',  ( 0.0000000000000000000, 0.0000000000000000000, -1.000000000000000000 ) ) ;
#349 = ORIENTED_EDGE ( 'NONE', *, *, #253, .F. ) ;
#350 = ORIENTED_EDGE ( 'NONE', *, *, #201, .T. ) ;
#351 = CARTESIAN_POINT ( 'NONE',  ( -299.9999999999999432, 80.00000000000002842, 3.765788907378112748E-14 ) ) ;
#352 = CARTESIAN_POINT ( 'NONE',  ( -599.9999999999996589, 0.0000000000000000000, -440.0000000000000000 ) ) ;
#353 = ORIENTED_EDGE ( 'NONE', *, *, #34, .T. ) ;
#354 = DIRECTION ( 'NONE',  ( -0.1622214211307872189, 0.9733285267845711575, -0.1622214211307620169 ) ) ;
#355 = CARTESIAN_POINT ( 'NONE',  ( 675.0000000000003411, 80.00000000000000000, -515.0000000000000000 ) ) ;
#356 = DIRECTION ( 'NONE',  ( -0.1842885350501860808, -0.9828721869343217676, 2.256883645687601992E-17 ) ) ;
#357 = ORIENTED_EDGE ( 'NONE', *, *, #77, .T. ) ;
#358 = ORIENTED_EDGE ( 'NONE', *, *, #125, .T. ) ;
#359 = VERTEX_POINT ( 'NONE', #346 ) ;
#360 = CARTESIAN_POINT ( 'NONE',  ( -299.9999999999999432, 80.00000000000002842, 3.673940397442062649E-14 ) ) ;
#361 = VERTEX_POINT ( 'NONE', #351 ) ;
#362 = ORIENTED_EDGE ( 'NONE', *, *, #253, .T. ) ;
#363 = CARTESIAN_POINT ( 'NONE',  ( -599.9999999999996589, 0.0000000000000000000, 440.0000000000000000 ) ) ;
#364 = FILL_AREA_STYLE_COLOUR ( '', #36 ) ;
#365 = DIRECTION ( 'NONE',  ( -0.0000000000000000000, -0.0000000000000000000, 1.000000000000000000 ) ) ;
#366 = ORIENTED_EDGE ( 'NONE', *, *, #138, .T. ) ;
#367 = ORIENTED_EDGE ( 'NONE', *, *, #33, .F. ) ;
#368 = DIRECTION ( 'NONE',  ( -1.000000000000000000, -0.0000000000000000000, -0.0000000000000000000 ) ) ;
#369 = ORIENTED_EDGE ( 'NONE', *, *, #202, .F. ) ;
#370 = ORIENTED_EDGE ( 'NONE', *, *, #410, .F. ) ;
#371 = ORIENTED_EDGE ( 'NONE', *, *, #405, .F. ) ;
#372 = ORIENTED_EDGE ( 'NONE', *, *, #194, .F. ) ;
#373 = CARTESIAN_POINT ( 'NONE',  ( 600.0000000000003411, 0.0000000000000000000, 440.0000000000000000 ) ) ;
#374 = DIRECTION ( 'NONE',  ( 0.0000000000000000000, 0.0000000000000000000, -1.000000000000000000 ) ) ;
#375 = EDGE_CURVE ( 'NONE', #126, #87, #60, .T. ) ;
#376 = CARTESIAN_POINT ( 'NONE',  ( 0.0000000000000000000, 0.0000000000000000000, 0.0000000000000000000 ) ) ;
#377 = ORIENTED_EDGE ( 'NONE', *, *, #112, .T. ) ;
#378 = ORIENTED_EDGE ( 'NONE', *, *, #415, .F. ) ;
#379 = CARTESIAN_POINT ( 'NONE',  ( -5.472722529970769400E-27, -1.318389841742373392E-12, 0.0000000000000000000 ) ) ;
#380 = ORIENTED_EDGE ( 'NONE', *, *, #21, .T. ) ;
#381 = VERTEX_POINT ( 'NONE', #355 ) ;
#382 = DIRECTION ( 'NONE',  ( 4.163336342344337027E-15, 1.000000000000000000, -0.0000000000000000000 ) ) ;
#383 = AXIS2_PLACEMENT_3D ( 'NONE', #176, #177, #178 ) ;
#384 = ORIENTED_EDGE ( 'NONE', *, *, #149, .T. ) ;
#385 = DIRECTION ( 'NONE',  ( -1.000000000000000000, 4.163336342344337027E-15, 0.0000000000000000000 ) ) ;
#386 = ORIENTED_EDGE ( 'NONE', *, *, #202, .T. ) ;
#387 =( LENGTH_UNIT ( ) NAMED_UNIT ( * ) SI_UNIT ( .MILLI., .METRE. ) );
#388 =( NAMED_UNIT ( * ) PLANE_ANGLE_UNIT ( ) SI_UNIT ( $, .RADIAN. ) );
#389 =( NAMED_UNIT ( * ) SI_UNIT ( $, .STERADIAN. ) SOLID_ANGLE_UNIT ( ) );
#390 = APPLICATION_PROTOCOL_DEFINITION ( 'draft international standard', 'automotive_design', 1998, #397 ) ;
#391 = ORIENTED_EDGE ( 'NONE', *, *, #415, .T. ) ;
#392 = AXIS2_PLACEMENT_3D ( 'NONE', #96, #1, #24 ) ;
#393 = ORIENTED_EDGE ( 'NONE', *, *, #21, .F. ) ;
#394 = ORIENTED_EDGE ( 'NONE', *, *, #112, .F. ) ;
#395 = ORIENTED_EDGE ( 'NONE', *, *, #407, .T. ) ;
#396 = ORIENTED_EDGE ( 'NONE', *, *, #143, .T. ) ;
#397 = APPLICATION_CONTEXT ( 'automotive_design' ) ;
#398 = FILL_AREA_STYLE ('',( #364 ) ) ;
#399 = SURFACE_SIDE_STYLE ('',( #35 ) ) ;
#400 = SURFACE_STYLE_USAGE ( .BOTH. , #399 ) ;
#401 = STYLED_ITEM ( 'NONE', ( #263 ), #189 ) ;
#402 =( LENGTH_UNIT ( ) NAMED_UNIT ( * ) SI_UNIT ( .MILLI., .METRE. ) );
#403 =( NAMED_UNIT ( * ) PLANE_ANGLE_UNIT ( ) SI_UNIT ( $, .RADIAN. ) );
#404 =( NAMED_UNIT ( * ) SI_UNIT ( $, .STERADIAN. ) SOLID_ANGLE_UNIT ( ) );
#405 = EDGE_CURVE ( 'NONE', #361, #110, #53, .T. ) ;
#406 = DIRECTION ( 'NONE',  ( 0.0000000000000000000, 0.0000000000000000000, 1.000000000000000000 ) ) ;
#407 = EDGE_CURVE ( 'NONE', #126, #136, #56, .T. ) ;
#408 = ORIENTED_EDGE ( 'NONE', *, *, #108, .F. ) ;
#409 = DIRECTION ( 'NONE',  ( 1.000000000000000000, 0.0000000000000000000, 0.0000000000000000000 ) ) ;
#410 = EDGE_CURVE ( 'NONE', #296, #48, #51, .T. ) ;
#411 = PRODUCT_CONTEXT ( 'NONE', #397, 'mechanical' ) ;
#412 = EDGE_CURVE ( 'NONE', #359, #248, #46, .T. ) ;
#413 = PRODUCT_DEFINITION_SHAPE ( 'NONE', 'NONE',  #10 ) ;
#414 = PRESENTATION_STYLE_ASSIGNMENT (( #400 ) ) ;
#415 = EDGE_CURVE ( 'NONE', #110, #335, #45, .T. ) ;
#416 = ORIENTED_EDGE ( 'NONE', *, *, #230, .T. ) ;
#417 = ADVANCED_BREP_SHAPE_REPRESENTATION ( '¦ûøªð ôû  ¦¦T¨-1-10(80)', ( #189, #11 ), #17 ) ;
#418 = PLANE ( 'NONE',  #67 ) ;
ENDSEC;
END-ISO-10303-21;
